Tablature guitare : Snow Patrol – Run

[Intro/Verse]

Use strict downstrokes.

Rythmn:
e|-------------------------------------|
B|-------------------------------------|
G|o-5-5-5-5-5-5-5-5-5-5-5-5-5-5-5-5-5-o|
D|--2-2-2-2-2-3-3-3-0-0-0-0-0-0-0-0-0--| <-- dont mute the open string
A|o-0-0-0-0-0-0-0-0-0-5-5-5-5-5-5-5-5-o|
E|--------------------3-3-3-3-3-3-3-3--|

Lead:
e|--------------------------------|
B|--------------------------------|
G|---9-9-9-7-7-7-7/4-4-4-4/2-2----|
D|--------------------------------|
A|--------------------------------|
E|--------------------------------|


[Chorus]

Rythmn:   C                     G                  Am
Lead: e|--------------------------------------------------------------------|
      B|-------8------8------8------8-----8-----8-------10------10------10--|
      G|-----9------9------9------7-----7-----7-------9-------9-------9-----|
      D|--10-----10-----10------9-----9-----9------10------10------10-------|
      A|--------------------------------------------------------------------|
      E|--------------------------------------------------------------------|

Rythmn:   F
Lead: e|--------8-------8-------8-------8--|
      B|-----10------10------10------10----|
      G|--10------10------10------10-------|
      D|-----------------------------------|
      A|-----------------------------------|
      E|-----------------------------------|


[Solo]

(Overdrive)

e|--------------------|----------------------|
B|o-------------------|---------------------o|
G|---10-10-9-9-7-7-9--|--10-10-9-9-7-7-5-5---|
D|--------------------|----------------------|
A|o-------------------|---------------------o|
E|--------------------|----------------------| x2

e|------------------------------------------------------------------------------|
B|------------------------------------------------------------------------------|
G|--10-10-10-9-9-7-7-9-9-5-5-4-4-2-2-0-0-2-2-4-4-5-5-5-7-7-5-5-7-7-9-9-7-7-5-5--|
D|------------------------------------------------------------------------------|
A|------------------------------------------------------------------------------|
E|------------------------------------------------------------------------------|
(thanks to version 2 ^)



*****************************

| /  slide up
| \  slide down
| h  hammer-on
| p  pull-off
| ~  vibrato
| +  harmonic
| x  Mute note

*****************************

https://tabs.ultimate-guitar.com/s/snow_patrol/run_ver3_tab.htm