Tablature guitare : Snow Patrol – Chocolate

Chocolate By Snow Patrol

Tabbed By Jamie. (how you doin?)

Tuning: Drop D (DADGBe)

Intro: Guitar 1
e|--------------------------------------------------------------------------|
B|--------------------------------------------------------------------------|
G|--------------------------------------------------------------------------|
D|--77777777-77777777-------------------------------------------------------|
A|--55555555-55555555-------x8----------------------------------------------|
D|--00000000-55555555-------------------------------------------------------|

Intro Part 2: Guitar 1

e|------------------------------------------5-------------------------------|
B|--------7------7------------7-----------------7---------------------------|
G|------7------7-----7-----7--------7---------------7---------x2------------|
D|----0-------0----0-----5-------5------------------------------------------|
A|--------------------------------------------------------------------------|
D|--------------------------------------------------------------------------|

Intro Part 2: Guitar 2

e|--------------------------------------------------------------------------|
B|--------------------------------------------------------------------------|
G|--------------------------------------------------------------------------|
D|-----2/4-2-0h2-------------x2---------------------------------------------|
A|----------------2---------------------------------------------------------|
D|--------------------------------------------------------------------------|

Verse: Guitar 1
e|---------------------------------------5----------------------------------|
B|--------7------7------------7--------------7------------------------------|
G|------7------7-----7-----7--------7------------7------x7------------------|
D|----0-------0----0-----5-------5------------------------------------------|
A|--------------------------------------------------------------------------|
D|--------------------------------------------------------------------------|

e|--------------------------------------------------------------------------|
B|----------8---------8-----------------------------------------------------|
G|-------7---------7---------7----------------------------------------------|
D|----5---------5---------5-------------------------------------------------|
A|--------------------------------------------------------------------------|
D|--------------------------------------------------------------------------|

Verse Guitar 2

e|--------------------------------------------------------------------------|
B|--------------------------------------------------------------------------|
G|--------------------------------------------------------------------------|
D|--77777777-77777777----------------77777777-------------------------------|
A|--55555555-55555555-------x7-------55555555-------------------------------|
D|--00000000-55555555----------------55555555-------------------------------|

Chorus: Both Guitars

e|--------------------------------------------------------------------------|
B|--------------------------------------------------------------------------|
G|--------------------------------------------------------------------------|
D|---77777777-77777777-77777777---------------------------------------------|
A|---55555555-44444444-55555555---------------------------------------------|
D|---00000000-44444444-55555555---------------------------------------------|

e|--------------------------------------------------------------------------|
B|--------------------------------------------------------------------------|
G|-End Song with -----------------------------------------------------------|
D|----------------------7---------------------------------------------------|
A|----------------------5---------------------------------------------------|
D|----------------------0---------------------------------------------------|

https://tabs.ultimate-guitar.com/s/snow_patrol/chocolate_ver3_tab.htm