Tablature guitare : Silverstein – Massachusetts

Author
Difficulty
Tuning
novice
D# G# C# F# A# D#
Silverstein - Massachusetts (Acoustic)
This is How the Wind Shifts (Deluxe Edition)

Tuning: half-step down  

Updated: 04/04/13
- Added Asus2 in Verses (still in novice difficulty)
- Updated lyrics for Bridge ("...I'll never come back." instead of
  "...look back.", as written in the original version)


[Intro]

Am-G-C-G


[Verse 1]

              Am      Asus2
She's cutting out the bruises,
   F             G               Am    Asus2
Forgetting her excuses for being here again
       F                   C       G      Am
with a suitcase packed and waiting by the door.
       Asus2    F                  G            Am       Asus2
In her head, convinced herself she hasn't lost enough to quit.
      F                   C
But tonight she lays here thinking,
 G       F C    G
"What if I just left
       Am     G      F
In the middle of the night
C           G
Back to California
    Am-G
And never look back?"


[Chorus]

Am            F
  She'll fantasize about it
C            G                 F
every single day but she can't find it
       G             Am
in her heart to run away,
    C
and no one's listening.
Am              F
  With Northern Massachusetts,
C                G
on his knees to stay, he's begging,
 F               G               Am
"Please, oh baby please, I can explain.
                 F-G
It won't happen again."


[Verse 2]

             Am      Asus2
He's putting out the fires
         F            C
and he's making her believe
     G      Am           Asus2
he's really changed this time;
         F            G              Am           Asus2
But it's obvious it's just another lie, lapse and relapse.
     F               C        G
And again she lays beside him thinking,
 F    C--G           Am     G      F
"I'll pretend in the middle of the night,
   C                     G
my eyes are closed, I'm sleeping,
Am               G
But I won't come back."


[Chorus]

Am            F
  She'll fantasize about it
C            G                 F
every single day but she can't find it
       G             Am
in her heart to run away,
    C
And no one's listening.
Am              F
  With Northern Massachusetts,
C                G
On his knees to stay, he's begging,
 F               G               Am
"Please, oh baby please, I can explain.
                 Ad lib: Am-G-F-G
It won't happen again... It won't happen again"


[Bridge]

Am
  How long can this last?
G#m
  The final straw was the hospital.
F
  At least she told herself that.
          G
But she just can't find the strength to end it.
 F C    G           Am     G      F
"I just left in the middle of the night,
C           G
Back to California,
    Am-G
I'll never come back..."


[Chorus]

Am            F
  She'll fantasize about it
C            G                 F
every single day but she can't find it
       G             Am
in her heart to run away,
    C
And no one's listening.
Am              F
  With Northern Massachusetts,
C                G
On his knees to stay, he's begging,
 F               G               Am
"Please, oh baby please, I can explain.
   C
It won't happen again"


[Outro]

Am            F
  She'll fantasize about it
C            G                 F
every single day but she can't find it
       G             Am
in her heart to run away, (to run away...)
    C
And no one's listening.
Am              F
  With Northern Massachusetts,
C                G  (ON his knees to stay...) 
On his knees to stay, he's begging,
 F               G               Am
"Please, oh baby please, I can explain.
                 Am
It won't happen again"

In the verse after every Am, you should pull off the b string and it will sound better.

Im having problem with the chorus though, F's after Am doesn't sound quite right for me :/
(maybe its just me dunno)

good tab overall

https://tabs.ultimate-guitar.com/s/silverstein/massachusetts_acoustic_crd.htm

Author
Difficulty
Tuning
intermediate
C# G# C# F# A# D#
Tabbed by: Joshua Garcia (joshuag523@aol.com)

Tabs for the song: Massachusetts by Silverstein
Please rate and let me know if you have any corrections. Thank you.


**For my tab of the whole album, go here:
http://tabs.ultimate-guitar.com/s/silverstein/this_is_how_the_wind_shifts_album_tab.htm **


Tuning: Drop C# (C# G# C# F# A# D#)


[Intro]
Guitar 1/2:
D#||----------------------------------------------|
A#||----------------------------------------------|
F#||----------------------------------------------|
C#||----------------------------------------------|
G#||--8-8---10-10---8--8----7--7-~----\\pick-\\---|
C#||--0-0---8--8----10-10---10-10~-----\\slide\\--|



[Verse]
Guitar 1/2:
D#||-------------------------------------------|------------------------------------|
A#||-------------------------------------------|------------------------------------|
F#||----------------------------------9-10-----|------------------------------------|
C#||-------------------------------10------10--|---------------------7---5---3---5--|
G#||------8------10-------7------8-------------|------8------10------8---7---5---7--|
C#||--0-----10-0----10-0-------8---------------|--0-----10-0----10-0----------------|
               .       .       . . .                       .       .


Guitar 1:
D#||-------------------------------------------|
A#||-------------------------------------------|
F#||----------------------------------9-10-----|
C#||-------------------------------10------10--|
G#||------8------10-------7------8-------------|
C#||--0-----10-0----10-0-------8---------------|
               .       .       . . .


Guitar 2:
D#||------------------------------------------|
A#||----------------------------------8-10----|
F#||--------------------------------9------9--|
C#||-----------------------------10-----------|
G#||------8------10-------7----7--------------|
C#||--0-----10-0----10-0----------------------|
               .       .       . .  .


Guitar 1/2:
D#||-------------------------------------|
A#||-------------------------------------|
F#||-------------------------------------|
C#||--10--1010--101010--7---77---5---55--|
G#||--8---8-8---8-8-8---3---33---3---33--|
C#||--8---8-8---8-8-8---3---33---2---22--|



Guitar 1/2:
D#||-------------------------------------------|------------------------------------|
A#||-------------------------------------------|------------------------------------|
F#||----------------------------------9-10-----|------------------------------------|
C#||-------------------------------10------10--|---------------------7---5---3---5--|
G#||------8------10-------7------8-------------|------8------10------8---7---5---7--|
C#||--0-----10-0----10-0-------8---------------|--0-----10-0----10-0----------------|
               .       .       . . .                       .       .


Guitar 1:
D#||-------------------------------------------|
A#||-------------------------------------------|
F#||----------------------------------9-10-----|
C#||-------------------------------10------10--|
G#||------8------10-------7------8-------------|
C#||--0-----10-0----10-0-------8---------------|
               .       .       . . .


Guitar 2:
D#||------------------------------------------|
A#||----------------------------------8-10----|
F#||--------------------------------9------9--|
C#||-----------------------------10-----------|
G#||------8------10-------7----7--------------|
C#||--0-----10-0----10-0----------------------|
               .       .       . .  .


Guitar 1/2:
D#||----------------------------------------|
A#||----------------------------------------|
F#||----------------------------------------|
C#||--10--1010--101010--7---77-/-10---1010--|
G#||--8---8-8---8-8-8---3---33-/-7----7-7---|
C#||--8---8-8---8-8-8---3---33-/-7----7-7---|



[Pre-Chorus]
Guitar 1:
D#||---------------------------------------|---------------------|
A#||---------------------------------------|---------------------|
F#||--7~-----9~-----9-~-----10--10--9---7--|--7~-----9~-----9~---|
C#||--8~-----8~-----10~-----10--10--10--5--|--8~-----8~-----10~--|
G#||---------------------------------------|---------------------|
C#||---------------------------------------|---------------------|


D#||----------------|
A#||----------------|
F#||--1010101010-9--|
C#||--7-7-7-7-7--7--|
G#||----------------|
C#||----------------|


Guitar 2:
D#||---------------------------------------------------|
A#||---------------------------------------------------|
F#||---------------------------------------------------|
C#||--8~----------10~----------8~----------10~------7--|
G#||--8~----------10~----------8~----------10~------7--|
C#||--8~----------10~----------8~----------10~------7--|



[Chorus]
Guitar 1:
D#||---------------------------------------------------------------|
A#||---------------------------------------------------------------|
F#||--10-1010-1012---17-1717-171514--14-1414-141514-12-1212-10--9--|
C#||--x--x-x--x-x----x--x-x--x-x-x---x--x-x--x-x-x--x--x-x--x---x--|
G#||--8--8-8--8-10---15-1515-151312--12-1212-121312-10-1010-8---7--|
C#||---------------------------------------------------------------|


D#||------------------------------------------------------------|
A#||------------------------------------------------------------|
F#||--10-1010-1012---9-99--9-10-9-7-77-777--14--1414--17--1717--|
C#||--x--x-x--x-x----x-xx--x-x--x-x-xx-xxx--x---x-x---x---x-x---|
G#||--8--8-8--8-10---7-77--7-8--7-5-55-555--12--1212--15--1515--|
C#||------------------------------------------------------------|


D#||---------------------------------------------------------------|
A#||---------------------------------------------------------------|
F#||--10-1010-1012---17-1717-171514--14-1414-141514-12-1212-10--9--|
C#||--x--x-x--x-x----x--x-x--x-x-x---x--x-x--x-x-x--x--x-x--x---x--|
G#||--8--8-8--8-10---15-1515-151312--12-1212-121312-10-1010-8---7--|
C#||---------------------------------------------------------------|


D#||-------------------------------------------------------|
A#||-------------------------------------------------------|
F#||--10-1010-1012---9-99--9-10-9-7-77-777-----------------|
C#||--x--x-x--x-x----x-xx--x-x--x-x-xx-xxx-----------------|
G#||--8--8-8--8-10---7-77--7-8--7-5-55-555-----------------|
C#||----------------------------------------x-x-x-x-x-x-x--|


Guitar 2:
D#||------------------------------------------------------|
A#||------------------------------------------------------|
F#||--7-77-777--------------------------------------------|
C#||--7-77-777--10-1010-101010--7-77-777--10-1010-101010--|
G#||--5-55-555--8--8-8--8-8-8---8-88-888--10-1010-101010--|
C#||------------8--8-8--8-8-8---7-77-777--10-1010-101010--|


D#||-----------------------------------------------|
A#||-----------------------------------------------|
F#||---------------------------7-77-777------------|
C#||--8-88-888-10-1010-101010--7-77-777--3-33-333--|
G#||--8-88-888-10-1010-101010--5-55-555--3-33-333--|
C#||--8-88-888-10-1010-101010------------3-33-333--|


D#||------------------------------------------------------|
A#||------------------------------------------------------|
F#||--7-77-777--------------------------------------------|
C#||--7-77-777--10-1010-101010--7-77-777--10-1010-101010--|
G#||--5-55-555--8--8-8--8-8-8---8-88-888--10-1010-101010--|
C#||------------8--8-8--8-8-8---7-77-777--10-1010-101010--|


D#||----------------------------------------------------|
A#||----------------------------------------------------|
F#||---------------------------7-77-777-----------------|
C#||--8-88-888-10-1010-101010--7-77-777-----------------|
G#||--8-88-888-10-1010-101010--5-55-555-----------------|
C#||--8-88-888-10-1010-101010------------x-x-x-x-x-x-x--|



[Pre-Verse]
Guitar 1:
D#||-------------------------------------------|------------------------------------|
A#||-------------------------------------------|------------------------------------|
F#||----------------------------------9-10-----|------------------------------------|
C#||-------------------------------10------10--|---------------------7---5---3---5--|
G#||------8------10-------7------8-------------|------8------10------8---7---5---7--|
C#||--0-----10-0----10-0-------8---------------|--0-----10-0----10-0----------------|
               .       .       . . .                       .       .


Guitar 2:
D#||-------------------------------------------|------------------------------------|
A#||-------------------------------------------|------------------------------------|
F#||-------------------------------------------|------------------------------------|
C#||-------------------------------------------|---------------------7---5---3---5--|
G#||-------------------------------------------|---\\pick-\\---------8---7---5---7--|
C#||-------------------------------------------|----\\slide\\-----------------------|



[Verse]
Guitar 1:
D#||-------------------------------------------|
A#||-------------------------------------------|
F#||----------------------------------9-10-----|
C#||-------------------------------10------10--|
G#||------8------10-------7------8-------------|
C#||--0-----10-0----10-0-------8---------------|
               .       .       . . .


Guitar 2:
D#||------------------------------------------|
A#||----------------------------------8-10----|
F#||--------------------------------9------9--|
C#||-----------------------------10-----------|
G#||------8------10-------7----7--------------|
C#||--0-----10-0----10-0----------------------|
               .       .       . .  .


Guitar 1/2:
D#||-------------------------------------|
A#||-------------------------------------|
F#||-------------------------------------|
C#||--10--1010--101010--7---77---5---55--|
G#||--8---8-8---8-8-8---3---33---3---33--|
C#||--8---8-8---8-8-8---3---33---2---22--|


D#||-------------------------------------------|------------------------------------|
A#||-------------------------------------------|------------------------------------|
F#||----------------------------------9-10-----|------------------------------------|
C#||-------------------------------10------10--|---------------------7---5---3---5--|
G#||------8------10-------7------8-------------|------8------10------8---7---5---7--|
C#||--0-----10-0----10-0-------8---------------|--0-----10-0----10-0----------------|
               .       .       . . .                       .       .


Guitar 1:
D#||-------------------------------------------|
A#||-------------------------------------------|
F#||----------------------------------9-10-----|
C#||-------------------------------10------10--|
G#||------8------10-------7------8-------------|
C#||--0-----10-0----10-0-------8---------------|
               .       .       . . .


Guitar 2:
D#||------------------------------------------|
A#||----------------------------------8-10----|
F#||--------------------------------9------9--|
C#||-----------------------------10-----------|
G#||------8------10-------7----7--------------|
C#||--0-----10-0----10-0----------------------|
               .       .       . .  .


Guitar 1/2:
D#||----------------------------------------|
A#||----------------------------------------|
F#||----------------------------------------|
C#||--10--1010--101010--7---77-/-10---1010--|
G#||--8---8-8---8-8-8---3---33-/-7----7-7---|
C#||--8---8-8---8-8-8---3---33-/-7----7-7---|



[Pre-Chorus]
Guitar 1:
D#||---------------------------------------|---------------------|
A#||---------8~----------------------------|---------------------|
F#||--7~-----9~-----9-~-----10--10--9---7--|--7~-----9~-----9~---|
C#||--8~------------10~-----10--10--10--5--|--8~-----8~-----10~--|
G#||---------------------------------------|---------------------|
C#||---------------------------------------|---------------------|


D#||----------------|
A#||-------------8--|
F#||--1010101010-x--|
C#||--7-7-7-7-7--7--|
G#||----------------|
C#||----------------|


Guitar 2:
D#||---------------------------------------------------|
A#||---------------------------------------------------|
F#||---------------------------------------------------|
C#||--8~----------10~----------8~----------10~------7--|
G#||--8~----------10~----------8~----------10~------7--|
C#||--8~----------10~----------8~----------10~------7--|



[Chorus]
Guitar 1:
D#||---------------------------------------------------------------|
A#||---------------------------------------------------------------|
F#||--10-1010-1012---17-1717-171514--14-1414-141514-12-1212-10--9--|
C#||--x--x-x--x-x----x--x-x--x-x-x---x--x-x--x-x-x--x--x-x--x---x--|
G#||--8--8-8--8-10---15-1515-151312--12-1212-121312-10-1010-8---7--|
C#||---------------------------------------------------------------|


D#||------------------------------------------------------------|
A#||------------------------------------------------------------|
F#||--10-1010-1012---9-99--9-10-9-7-77-777--14--1414--17--1717--|
C#||--x--x-x--x-x----x-xx--x-x--x-x-xx-xxx--x---x-x---x---x-x---|
G#||--8--8-8--8-10---7-77--7-8--7-5-55-555--12--1212--15--1515--|
C#||------------------------------------------------------------|


D#||---------------------------------------------------------------|
A#||---------------------------------------------------------------|
F#||--10-1010-1012---17-1717-171514--14-1414-141514-12-1212-10--9--|
C#||--x--x-x--x-x----x--x-x--x-x-x---x--x-x--x-x-x--x--x-x--x---x--|
G#||--8--8-8--8-10---15-1515-151312--12-1212-121312-10-1010-8---7--|
C#||---------------------------------------------------------------|


D#||-------------------------------------------------------|
A#||-------------------------------------------------------|
F#||--10-1010-1012---9-99--9-10-9-7-77-777-----------------|
C#||--x--x-x--x-x----x-xx--x-x--x-x-xx-xxx-----------------|
G#||--8--8-8--8-10---7-77--7-8--7-5-55-555-----------------|
C#||----------------------------------------x-x-x-x-x-x-x--|


Guitar 2:
D#||------------------------------------------------------|
A#||------------------------------------------------------|
F#||--7-77-777--------------------------------------------|
C#||--7-77-777--10-1010-101010--7-77-777--10-1010-101010--|
G#||--5-55-555--8--8-8--8-8-8---8-88-888--10-1010-101010--|
C#||------------8--8-8--8-8-8---7-77-777--10-1010-101010--|


D#||-----------------------------------------------|
A#||-----------------------------------------------|
F#||---------------------------7-77-777------------|
C#||--8-88-888-10-1010-101010--7-77-777--3-33-333--|
G#||--8-88-888-10-1010-101010--5-55-555--3-33-333--|
C#||--8-88-888-10-1010-101010------------3-33-333--|


D#||------------------------------------------------------|
A#||------------------------------------------------------|
F#||--7-77-777--------------------------------------------|
C#||--7-77-777--10-1010-101010--7-77-777--10-1010-101010--|
G#||--5-55-555--8--8-8--8-8-8---8-88-888--10-1010-101010--|
C#||------------8--8-8--8-8-8---7-77-777--10-1010-101010--|


D#||----------------------------------------------------|
A#||----------------------------------------------------|
F#||---------------------------7-77-777-----------------|
C#||--8-88-888-10-1010-101010--7-77-777-----------------|
G#||--8-88-888-10-1010-101010--5-55-555-----------------|
C#||--8-88-888-10-1010-101010------------x-x-x-x-x-x-x--|



Breakdown
Guitar 1/2:
D#||---------------------------------------------------------------------------------------------|
A#||---------------------------------------------------------------------------------------------|
F#||---------------------------------------------------------------------------------------------|
C#||--7-\-----------------------------7-\-------------------------------6------------------------|
G#||--5-\--0-0-0-----0-0-0-0----0-3/5-5-\--0-0-0-0-----0-0-0-0----8-5-7-4---0-0-0-0-----0-0-0-0--|
C#||-------0-0-0-----0-0-0-0----0-3/5------0-0-0-0-----0-0-0-0----8-5-7-----0-0-0-0-----0-0-0-0--|
           . . .     . . . .               . . . .     . . . .              . . . .     . . . .

D#||---------------------------------------------|
A#||---------------------------------------------|
F#||---------------------------------------------|
C#||---------------------------------------------|
G#||--0-5-7-8---8-8-8-8-----8-10-10-10----8-7-5--|
C#||--0-5-7-8---8-8-8-8-----8-10-10-10----8-7-5--|
                . . . .     . .  .  .

D#||---------------------------------------------------------------------------------------------|
A#||---------------------------------------------------------------------------------------------|
F#||---------------------------------------------------------------------------------------------|
C#||--7-\-----------------------------7-\-------------------------------6------------------------|
G#||--5-\--0-0-0-----0-0-0-0----0-3/5-5-\--0-0-0-0-----0-0-0-0----8-5-7-4---0-0-0-0-----0-0-0-0--|
C#||-------0-0-0-----0-0-0-0----0-3/5------0-0-0-0-----0-0-0-0----8-5-7-----0-0-0-0-----0-0-0-0--|
           . . .     . . . .               . . . .     . . . .              . . . .     . . . .

D#||---------------------------------------------|
A#||---------------------------------------------|
F#||---------------------------------------------|
C#||--------10--1010--101010---11--1111--111111--|
G#||--0-5-7-8---8-8---8-8-8----12--1212--121212--|
C#||--0-5-7-8---8-8---8-8-8----11--1111--111111--|



[Interlude]
Guitar 1:
D#||---------------------------------------|---------------------|
A#||---------------------------------------|---------------------|
F#||--7~-----9~-----9-~-----10--10--9---7--|--7~-----9~-----9~---|
C#||--8~------------10~-----------------5--|--8~------------10~--|
G#||---------------------------------------|---------------------|
C#||---------------------------------------|---------------------|


D#||----------------|
A#||----------------|
F#||--1010101010-9--|
C#||--7-7-7-7-7--7--|
G#||----------------|
C#||----------------|


Guitar 2:
D#||----------------|
A#||----------------|
F#||----------------|
C#||--7-7-7-7-7-7---|
G#||--7-7-7-7-7-7---|
C#||--7-7-7-7-7-7---|



[Chorus]
Guitar 1:
D#||---------------------------------------------------------------|
A#||---------------------------------------------------------------|
F#||--10-1010-1012---17-1717-171514--14-1414-141514-12-1212-10--9--|
C#||--x--x-x--x-x----x--x-x--x-x-x---x--x-x--x-x-x--x--x-x--x---x--|
G#||--8--8-8--8-10---15-1515-151312--12-1212-121312-10-1010-8---7--|
C#||---------------------------------------------------------------|


D#||------------------------------------------------------------|
A#||------------------------------------------------------------|
F#||--10-1010-1012---9-99--9-10-9-7-77-777--14--1414--17--1717--|
C#||--x--x-x--x-x----x-xx--x-x--x-x-xx-xxx--x---x-x---x---x-x---|
G#||--8--8-8--8-10---7-77--7-8--7-5-55-555--12--1212--15--1515--|
C#||------------------------------------------------------------|


D#||---------------------------------------------------------------|
A#||---------------------------------------------------------------|
F#||--10-1010-1012---17-1717-171514--14-1414-141514-12-1212-10--9--|
C#||--x--x-x--x-x----x--x-x--x-x-x---x--x-x--x-x-x--x--x-x--x---x--|
G#||--8--8-8--8-10---15-1515-151312--12-1212-121312-10-1010-8---7--|
C#||---------------------------------------------------------------|


D#||-------------------------------------------------------|
A#||-------------------------------------------------------|
F#||--10-1010-1012---9-99--9-10-9-7-77-777-----------------|
C#||--x--x-x--x-x----x-xx--x-x--x-x-xx-xxx-----------------|
G#||--8--8-8--8-10---7-77--7-8--7-5-55-555-----------------|
C#||----------------------------------------x-x-x-x-x-x-x--|


Guitar 2:
D#||------------------------------------------------------|
A#||------------------------------------------------------|
F#||--7-77-777--------------------------------------------|
C#||--7-77-777--10-1010-101010--7-77-777--10-1010-101010--|
G#||--5-55-555--8--8-8--8-8-8---8-88-888--10-1010-101010--|
C#||------------8--8-8--8-8-8---7-77-777--10-1010-101010--|


D#||-----------------------------------------------|
A#||-----------------------------------------------|
F#||---------------------------7-77-777------------|
C#||--8-88-888-10-1010-101010--7-77-777--3-33-333--|
G#||--8-88-888-10-1010-101010--5-55-555--3-33-333--|
C#||--8-88-888-10-1010-101010------------3-33-333--|


D#||------------------------------------------------------|
A#||------------------------------------------------------|
F#||--7-77-777--------------------------------------------|
C#||--7-77-777--10-1010-101010--7-77-777--10-1010-101010--|
G#||--5-55-555--8--8-8--8-8-8---8-88-888--10-1010-101010--|
C#||------------8--8-8--8-8-8---7-77-777--10-1010-101010--|


D#||----------------------------------------------------|
A#||----------------------------------------------------|
F#||---------------------------7-77-777-----------------|
C#||--8-88-888-10-1010-101010--7-77-777-----------------|
G#||--8-88-888-10-1010-101010--5-55-555-----------------|
C#||--8-88-888-10-1010-101010------------x-x-x-x-x-x-x--|



[Outro]
Guitar 1:
D#||---------------------------------------------------------------------|
A#||---------------------------------------------------------------------|
F#||---------------------------------------------------------------------|
C#||--7-\-----------------------------7-\--------------------------------|
G#||--5-\--0-0-0-----0-0-0-0----0-3/5-5-\--0-0-0-0-----0-0-0-0----8-5-7--|
C#||-------0-0-0-----0-0-0-0----0-3/5------0-0-0-0-----0-0-0-0----8-5-7--|
           . . .     . . . .               . . . .     . . . .          

Guitar 2:
D#||-------------------------------------------|------------------------------------|
A#||-------------------------------------------|------------------------------------|
F#||----------------------------------9-10-----|------------------------------------|
C#||-------------------------------10------10--|---------------------7---5---3---5--|
G#||------8------10-------7------8-------------|------8------10------8---7---5---7--|
C#||--0-----10-0----10-0-------8---------------|--0-----10-0----10-0----------------|
               .       .       . . .                       .       .

Guitar 1/2:
D#||-----------------------------------------------------------------------------|
A#||-----------------------------------------------------------------------------|
F#||-----------------------------------------------------------------------------|
C#||--6---------------------------------------------------------------------7-\--|
G#||--4---0-0-0-0-----0-0-0-0-----0-5-7-8---8-8-8-8-----8-10-10-10----8-7-5-5-\--|
C#||------0-0-0-0-----0-0-0-0-----0-5-7-8---8-8-8-8-----8-10-10-10----8-7-5------|
          . . . .     . . . .               . . . .     . .  .  .



************************************

| \  Slide down
| ~  Vibrato
| .  Staccato
| /  Slide up
| x  Dead note

************************************

https://tabs.ultimate-guitar.com/s/silverstein/massachusetts_tab.htm