Tablature guitare : Sex Pistols – Pretty Vacant

Tabbed by George Ireland

 [Intro]
e|---------------------------------|
B|---------------------------------|
G|--------2--2---------------(x16--|
D|--------------------2--2---------|
A|--0--0--------0--0---------------|
E|---------------------------------|

 [Verse]
e|-----------------------------------------|
B|-----------------------------------------|
G|----------7-7------------9-9-9-9---------|
D|--7--5-5--7-7--7-7--5-5--9-9-9-9---------|
A|--7--5-5--5-5--7-7--5-5--7-7-7-7---------|
E|--5--3-3-------5-5--3-3------------------|

 [Bridge 1]
e|------------------------------------------|
B|------------------------------------------|
G|-9-9-9--------~5-7-5--------5~7-7--5-5----|
D|-9-9-9------5-7-----6~6--------------6~6--|
A|-7-7-7----5-7-----------------------------|
E|------------------------------------------|

 [Chorus]
e|------------------------------------------------------------|
B|------------------------------------------------------------|
G|--7-7-7-7-7-7---5-5-5-5-5-5---------------------------------|
D|--7-7-7-7-7-7---5-5-5-5-5-5---7-7-7-7-7-7-7-7-7-7-7-7-------|
A|--5-5-5-5-5-5---3-3-3-3-3-3---7-7-7-7-7-7-7-7-7-7-7-7-------|
E|------------------------------5-5-5-5-5-5-5-5-5-5-5-5-------|

 [Verse]
e|-----------------------------------------|
B|-----------------------------------------|
G|----------7-7------------9-9-9-9---------|
D|--7--5-5--7-7--7-7--5-5--9-9-9-9---------|
A|--7--5-5--5-5--7-7--5-5--7-7-7-7---------|
E|--5--3-3-------5-5--3-3------------------|

 [Bridge 2]
e|-----------------------------------------|
B|--------------8-8------------------------|
G|-9-9-9---7~9-7---7---~7-9-7-9-7-9-7-9~7--| Let it ring
D|-9-9-9------------~8---------------------|
A|-7-7-7-----------------------------------|
E|-----------------------------------------|

 [Chorus]
e|------------------------------------------------------------|
B|------------------------------------------------------------|
G|--7-7-7-7-7-7---5-5-5-5-5-5---------------------------------|
D|--7-7-7-7-7-7---5-5-5-5-5-5---7-7-7-7-7-7-7-7-7-7-7-7-------|
A|--5-5-5-5-5-5---3-3-3-3-3-3---7-7-7-7-7-7-7-7-7-7-7-7-------|
E|------------------------------5-5-5-5-5-5-5-5-5-5-5-5-------|

 [Verse]
e|-----------------------------------------|
B|-----------------------------------------|
G|----------7-7------------9-9-9-9---------|
D|--7--5-5--7-7--7-7--5-5--9-9-9-9---------|
A|--7--5-5--5-5--7-7--5-5--7-7-7-7---------|
E|--5--3-3-------5-5--3-3------------------|

 [Bridge 1]
e|------------------------------------------|
B|------------------------------------------|
G|-9-9-9--------~5-7-5--------5~7-7--5-5----|
D|-9-9-9------5-7-----6~6--------------6~6--|
A|-7-7-7----5-7-----------------------------|
E|------------------------------------------|

 [Chorus]
e|------------------------------------------------------------|
B|------------------------------------------------------------|
G|--7-7-7-7-7-7---5-5-5-5-5-5---------------------------------|
D|--7-7-7-7-7-7---5-5-5-5-5-5---7-7-7-7-7-7-7-7-7-7-7-7-------|
A|--5-5-5-5-5-5---3-3-3-3-3-3---7-7-7-7-7-7-7-7-7-7-7-7-------|
E|------------------------------5-5-5-5-5-5-5-5-5-5-5-5-------|
were pretty, pretty vacant

 [Solo]
e|-----------------|
B|---------8-8-----|
G|----7~9-7---7----|
D|-------------~8--|
A|-----------------|
E|-----------------|

 And play the Chorus as the Outro.
e|------------------------------------------------------------|
B|------------------------------------------------------------|
G|--7-7-7-7-7-7---5-5-5-5-5-5---------------------------------|
D|--7-7-7-7-7-7---5-5-5-5-5-5---7-7-7-7-7-7-7-7-7-7-7-7-------|
A|--5-5-5-5-5-5---3-3-3-3-3-3---7-7-7-7-7-7-7-7-7-7-7-7-------|
E|------------------------------5-5-5-5-5-5-5-5-5-5-5-5-------|

*....We don't care!!

 [Outro]
e|------------|
B|------------|
G|------------|
D|--7--7-7----|
A|--7--7-7----|
E|--5--5-5----|

This is as close as I can get it from listening to the track and the live track, but I 
it is very accurate! So please give me a good rateing!

************************************

| ~  Vibrato

************************************

https://tabs.ultimate-guitar.com/s/sex_pistols/pretty_vacant_ver4_tab.htm