Tablature guitare : Ryan Gosling & Emma Stone – City Of Stars

[Verse]

e|------0----2-3-0-2---0------|-----5-7-8-12----14-15-12-14-10-12-7----------|
B|--0-1--------------3----0---|----------------------------------------------|
G|2---------------------------|----------------------------------------------|
D|----------------------------|----------------------------------------------| 
A|----------------------------|----------------------------------------------|
E|----------------------------|----------------------------------------------|

e|7-8----12-10-12-10-12-10-12--7--7-7--7-7----|-7--5--0--------2--7--5--3--0-|
B|-----------------------------8----7----6--3-|-------------4----------------|
G|--------------------------------------------|------------------------------|
D|--------------------------------------------|------------------------------|   x2
A|--------------------------------------------|------------------------------|
E|--------------------------------------------|------------------------------|

[Chorus]

e|0-0-0---0-2-|--2-2-0-2-2--|--2-2-0-2-3--|-3-2-3-0--------------------------|
B|------3-----|-------------|-------------|---------0------------------------|
G|------------|-------------|-------------|----------------------------------|
D|------------|-------------|-------------|----------------------------------|   x3
A|------------|-------------|-------------|----------------------------------|
E|------------|-------------|-------------|----------------------------------|

e|0-0-0---0-2----------------------------------------------------------------|
B|------3--------------------------------------------------------------------|
G|---------------------------------------------------------------------------|
D|---------------------------------------------------------------------------|
A|---------------------------------------------------------------------------|
E|---------------------------------------------------------------------------|



[Outro]

e|---2--7--5--3--0---|---------0--0---------------0--0-----------------------|
B|4------------------|-------0------3-0---------0------3-0-------------------|
G|-------------------|-----0------------------0------------------------------|
D|-------------------|---2------------------0--------------------------------|
A|-------------------|-------------------------------------------------------|
E|-------------------|-------------------------------------------------------|

e|------0--5---5--3--0--|----------------------------------------------------|
B|---1------------------|-----------------0----------------------------------|
G|2---------------------|-----------------0----------------------------------|
D|----------------------|----1--4---------2----------------------------------|
A|----------------------|--2-------------------------------------------------|
E|----------------------|----------------------------------------------------|

https://tabs.ultimate-guitar.com/r/ryan_gosling_emma_stone/city_of_stars_tab.htm

About this tab version
Includes instrumental break and chords with jazz voicings.
[Verse 1]
Gm7           C7                        Dm7
City of stars, are you shining just for me?
Gm7          C7                            Fmaj7
City of stars, there's so much that I can't see.
     Gm7  C7                            F       Am/E      F7/Eb
Who knows?  I felt it from the first embrace I shared with you
     Gm7       A7                          Dm7   Dm7/C
That now our dreams, they've finally come true

[Verse 2]
Gm7           C7                         Dm7
City of stars, just one thing everybody wants.
Gm7              C7                                  Fmaj7           Am/E
There in the bars and through the smokescreen of the crowded restaurants
     Gm7   C7                             F        Am/E   F7/Eb
It's love, yes, all we're looking for is love from someone else
  Gm7                A7
A rush, a glance, a touch, a dance

[Bridge]
   Bb                 C                    A7
A look in somebody's eyes to light up the skies
            Dm7
To open the world and send it reeling.
   Bb                       C                   Dm
A voice that says, I'll be here and you'll be alright.
Bb                  C                     A7  
 I don't care if I know just where I will go
                  Dm7
'Cause all that I need is this crazy feeling.
  Bb                 A7
A rat-tat-tat on my heart
                   Dm7   Dm7/C  Dm7/A  Dm7/G
Think I want it to stay.

[Instrumental]
Abm7  Db7  Ebm7
Abm7  Db7  Gbmaj7
Abm7  Db7  Gbmaj7  Bb/F  Gb7/Fb
Abm7  Bb7
Cb    Db   Bb7   Ebm7
Cb    Db   Ebm7
Cb    Db   Bb7   Ebm7
Cb    Bb7        Ebm
Dm7
Gm7   C7   Fmaj7
Gm7   A7          Dm7  Dm7/C

[Outro]
Gm7          C7                        Fmaj7
City of stars, are you shining just for me?
Gm7          A7                         Dm7
City of stars, you never shined so brightly

During the walkdown of F Am/E F7/Eb I'd add a D7 to resolve. Otherwise great lead sheet.

https://tabs.ultimate-guitar.com/r/ryan_gosling_emma_stone/city_of_stars_crd.htm