Tablature guitare : Rage Against – Under The Knife

Ok, so FINALLY here is the lead part, I completely forgot about it.
The other tab has both rhythm AND lead in the same measure, and it's not even in
the right tuning (Eb Standard),
so my last tab had the rhythm, and here is the LEAD

ENJOY

==============================================================================
                       UNDER THE KNIFE - RISE AGAINST
==============================================================================

INTRO

eb|--0-0-0-0-0-0-0-0-0-0-0-0-0---|
Bb|--5-5-5-2-2-2-2-3-3-3-3p2p0---|
Gb|------------------------------|
Db|------------------------------| X3
Ab|------------------------------|
Eb|------------------------------|

eb|-------------------------------|
Bb|-------------------------------|
Gb|-------------------------------|
Db|-2--2-2-2--5--4--4-4-4-4-4-4-4-|
Ab|-2--2-2-2--5--4--4-4-4-4-4-4-4-|
Eb|-0--0-0-0--3--2--2-2-2-2-2-2-2-|


DO IT ALL AGAIN,THEN HIT THIS NOTE AND KILL IT

eb|------|
Bb|------|
Gb|--4---|
Db|--4---|
Ab|--2---|
Eb|------|

=============================================================================

VERSE (SORRY IF THIS IS CONFUSING)

eb|----------------------------------   ---------------------------------|
Bb|----------------------------------   ---------------------------------|
Gb|----------------------------------   -4-------------------------------|
Db|----------------------------------   -4-4-4-4-4-4-4-4-4-4-4-4-4-4-4-4-|
Ab|-2-2-2-2-2-2-2-2-5-5-5-5-5-5-5-5-5   -2-2-2-2-2-2-2-2-2-2-2-2-2-2-2-2-|
Eb|-0-0-0-0-0-0-0-0-3-3-3-3-3-3-3-3-3   ---------------------------------|
PM  x x x x x x x x x x x x x x x x x   x x x x x x x x x x x x x x x
          PLAY THIS PART ^ TWICE, FOLLOWED BY THIS ^ THE 1ST TIME

THEN PLAY THIS PART THE SECOND TIME

eb|----------------------------------------------|
Bb|----------------------------------------------|
Gb|-4-------------6-7-6-7---------------7-7-7777-|
Db|-4-4-4-4-4-4-4-x-x-x-x-2-------------x-x-xxxx-| x2
Ab|-2-2-2-2-2-2-2-4-5-4-5-2-2-2-2-2-2-2-5-5-5555-|
Eb|-----------------------0-0-0-0-0-0-0----------|
PM    x x x x x x           x x x x x x

=============================================================================
PRE-CHORUS

eb|-----------------------------------------------------------------|
Bb|-----------------------------------------------------------------|
Gb|---------------------------------7-7-7-7-6-6-6-6-4-4-4-4-6-6-6-6-|
Db|-7-7-7-7-7-7-7-7-7-7-7-7-7-7-7-7-x-x-x-x-x-x-x-x-x-x-x-x-x-x-x-x-|
Ab|-7-7-7-7-7-7-7-7-7-7-7-7-7-7-7-7-5-5-5-5-4-4-4-4-2-2-2-2-4-4-4-4-|
Eb|-5-5-5-5-5-5-5-5-5-5-5-5-5-5-5-5---------------------------------|


============================================================================

CHORUS


eb|---------------------------------------------------------|
Bb|---------------------------------------------------------|
Gb|-7-7-7777----------4-4-4444-6666-7777----------7777-6666-|
Db|-7-7-7777-7-7-7777-4-4-xxxx-xxxx-xxxx-5-5-5555-xxxx-xxxx-|
Ab|-5-5-5555-7-7-7777-2-2-2222-4444-5555-5-5-5555-5555-4444-|
Eb|----------5-5-5555--------------------3-3-3333-----------|

eb|---0-0-0-0-0-0-0-0-0-0-0-0-0-------|
Bb|---5-5-5-2-2-2-2-3-3-3-3p2p0-------|
Gb|-4---------------------------------|
Db|-4--------------------------  <=---|
Ab|-2---------------------------------|
Eb|-----------------------------------|

DO IT ALL TWICE (DURING THE 2nd TIME, 2ND PORTION STARTS THE INTRO AGAIN)

=============================================================================

INTRO

eb|--0-0-0-0-0-0-0-0-0-0-0-0-0--|
Bb|--5-5-5-2-2-2-2-3-3-3-3p2p0--|
Gb|-----------------------------|
Db|-----------------------------| x2
Ab|-----------------------------|
Eb|-----------------------------|

eb|---------------|
Bb|---------------|
Gb|---------------|
Db|2--2-2-2-5-4 ~-|
Ab|2--2-2-2-5-4---| ~ HOLD IT
Eb|0--0-0-0-3-2 ~-|

============================================================================

VERSE, PRE-CHORUS, THEN ANOTHER CHORUS, WHICH LEADS INTO THE...

BRIDGE
                                3x    FOURTH TIME
eb|------------------------------|-----------------------|
Bb|------------------------------|-----------------------|
Gb|------------------------------|-----------------------|
Db|-----------------------4------|---------------4h5p4---|
Ab|-2-x-x-4-x-x-4-x-5-x-x---x-x-5|-2-x-x-4-x-x-4-------5-|
Eb|------------------------------|-----------------------|

REPEAT IT ALL THREE TIMES, THEN GO INTO A PRE-CHORUS, A CHORUS, THEN FINALLY, THE OUTRO

=============================================================================

OUTRO

eb|-0-0-0-0-0-0-0-0-0-0-0-0-0-|
Bb|-5-5-5-2-2-2-2-3-3-3-3p2p0-|
Gb|---------------------------|
Db|---------------------------|
Ab|---------------------------|
Eb|---------------------------|

END ON
eb|--------|
Bb|--------|
Gb|--4--4--|
Db|--4--4--|
Ab|--2--2--|
Eb|--------|

=============================================================================

I KNOW IT'S WRITTEN KIND OF WEIRD, BUT ALL THE NOTES ARE THERE, YOU JUST
KINDA HAVE TO DETERMINE WHEN YOU PLAY WHAT (IT'S NOT THAT COMPLICATED)
PLEASE RATE AND COMMENT
THANKS

https://tabs.ultimate-guitar.com/r/rise_against/under_the_knife_ver3_tab.htm