Tablature guitare : Rage Against The Machine – Renegades Of Funk

Renegades of Funk by Rage Against the Machine.
Tabbed by Neal EDravn25@aol.com.
  
Tabbed by Neal Petrosky (EDravn25@aol.com)
Renegades of Funk cover by RATM

Drop D

w/whammy set 2 octaves up and wah:
E---------------------------------|
B---------------------------------|
G---------------------------------|
D-2---2---2---2---3---3---3---3---|
A---3---3---3---3---5---5---5---5-|
D---------------------------------|
normal(i.e. no wah or whammy)
E---------------------------|
B---------------------------|
G---------------------------|
D-5\7----5\7----5\7---3\5---|
A-3\5----3\5----3\5---3\5---|
D------0------0-----0-3\5---|
last time bend up with whammy on the 5s

w/whammy and wah
E--------------------------|
B--------------------------|
G--------------------------|
D--------------------------|
A----------0--3----3-------|
D-0--3--5-------------0----|
interlude (normal)
E---------------------------|
B---------------------------|
G---------------------------|
D---------------------------|
A-5-5----------------5-5----|
D------0------------------0-|
fill 1
E--------|
B--------|
G--------|
D--5--7--|
A--5--7--|
D--5--7--|
siren like sound 
E-------------------------|
B-------------------------|
G--2slowbend3slowrelease2-|
D-------------------------|
A-------------------------|
D-------------------------|

Nice tab, perfect except for this...

You wrote this:
E-------------------------|
B-------------------------|
G--2slowbend3slowrelease2-|
D-------------------------|
A-------------------------|
D-------------------------|

It should be this:
E-------------------------|
B-------------------------|
G--3slowbend4slowrelease3-|
D-------------------------|
A-------------------------|
D-------------------------|

https://tabs.ultimate-guitar.com/r/rage_against_the_machine/renegades_of_funk_ver2_tab.htm