Tablature guitare : Rage Against The Machine – No Shelter

Author
Tuning
D A D G B E
X  String Mute
/  Slide Up
\  Slide Down
b  Bend
~  Vibrato


Intro and Chorus

E|------------------------------------------|
B|------------------------------------------| 
G|---------------------------x-x-x-x-x-x-x--|
D|---------------------------x-x-x-x-x-x-x--|
A|--10-12\----15----10-12\---x-x-x-x-x-x-x--|
D|--10-12\----15----10-12\---x-x-x-x-x-x-x--|

Verse

E|---------------------|
B|---------------------|  Wah on
G|---------------------|  
D|---------------------|
A|--3-5h3----3-5-3-----|
D|---------------------|

Solo
                                      Wah on    However many times needed
E|--16~-16~-16~-16~-16~-16~-16~-b16----16--16-16--16-16--16-16-16-16-16--|
B|-------------------------------------16--16-16--16-16--16-16-16-16-16--| 
G|-----------------------------------------------------------------------| 
D|-----------------------------------------------------------------------|
A|-----------------------------------------------------------------------|
D|-----------------------------------------------------------------------|

E|------------------------------------------------------------------|
B|------------------------------------------------------------------|  
G|--/19-/18-/17-/16-/19-/18-/17-/16-/19-/18-/17-/16-19b-19b-19b-19b-|  
D|------------------------------------------------------------------|
A|------------------------------------------------------------------|
D|------------------------------------------------------------------|

just stare...

|--------------------------------|
|--------------------------------|
|--------------------------------|
|--------------3-----------------|
|----5--3---------5--3--5--------|
|-0--------0---------------3--5--|

https://tabs.ultimate-guitar.com/r/rage_against_the_machine/vietnow_tab.htm