Tablature guitare : Rage Against The Machine – Maggies Farm

Author
Difficulty
Tuning
intermediate
B F# B E G# C#
‘MAGGIE’S FARM’ by RAGE AGAINST THE MACHINE
Appears on the Album ‘Renegades’ (Epic) released in 2000

Words by B. Dylan

Tabbed by: A.Kapper                                   Tuning: Dropped B

Alrighty then! The timing may not be perfect but all the notes are here. Also I only
the parts you need, but it is easy to figure out what goes where and if you can't do that
about time you pawned that guitar...

Intro: Cleanish                                            Dist Here!
e|--12-----12-----12------12-----10-----10-----10-----10-|--|-----|
b|------12-----12-----12------12-----12-----12----12-----|x2|-----|
G|-------------------------------------------------------|--|-----|
D|-------------------------------------------------------|--|-----|
A|-------------------------------------------------------|--|-----|
B|-------------------------------------------------------|--|-0//-|
On the second time vibrato the 10

Main Riff: Holy Moses this riff is good!
It's used during the verses, minus the little end riff.
e|-------------------------------------------------------------------|
b|-------------------------------------------------------------------|
G|-------------------------------------------------------------------|
D|---------------------------------------------0---------------------|
A|-----------------------------------------0-2---2-0-----------------|
B|--0-0-3p0--0-----0-3p0-5b---0-0--3p0---------------5-3-------------|

The way she makes you scrub the floors
e|--------------------------------|
b|--------------------------------|
G|-----7~~------4~~---------------|
D|-----7~~------4~~---------------|
A|-----5~~------2~~---------------|
B|-0-0------0-0-------------------|

Gonna work for Maggie’s brother
e|------------------------------------------------------------------|
b|------------------------------------------------------------------|
G|------------------------------------------------------------------|
D|------------------------------------------------------------------|
A|------------------------------------------------------------------|
B|---0-0--0--0-x-x-0-0--0--0-xxxx-----------------------------------|

He Fines you…
e|------------------------------------------------------------------|
b|------------------------------------------------------------------|
G|---7-7-7-7-7--4-4-4-4-4-------------------------------------------|
D|---7-7-7-7-7--4-4-4-4-4-------------------------------------------|
A|---5-5-5-5-5--2-2-2-2-2-------------------------------------------|
B|------------------------------------------------------------------|

SOLO Use a delay effect and possibly a pitch-shifter. This probably won't be correct but
is easy enough to ad-lib one.
E|---------------------------------------------|
B|---------------------------------------------|
G|--12-12-12-12-12-12-12-12-12-12-12-12-12-12--|
D|---------------------------------------------|
A|---------------------------------------------|
B|---------------------------------------------|X4

E|--------------------------------------------|
B|--------------------------------------------|
G|--12-14-12--12-14-12--12-14-12-14-12-17-12--|
D|--------------------------------------------|
A|--------------------------------------------|
B|--------------------------------------------|X2

E|-------------|
B|-------------| This note is played during the second half of the song.
G|-------------|
D|-12/~~~~~~~--|
A|-------------|
B|-------------|


After the repeat of the intro
E|--12------12------12-------------10------10------10-------------|
B|------12------12---------------------12------12-----------------|
G|----------------------------------------------------------------|
D|----------------------------------------------------------------|
A|----------------------------------------------------------------|
B|----------------------0-3p0-0-5----------------------0-3p0-0-5--|

The Breakdown is simply the main riff slower, which speeds. There is a little bit of a
thing going on, but its not worth tabbing, as there are several other guitars doin’ stuff.

| /  slide up
| \  slide down
| h  hammer-on
| p  pull-off
| ~  vibrato
| +  harmonic
| x  Mute note

P.S Would it kill someone to tab ‘Mama’s Boy’ by The Ramones?!?

I think the chord strumming part o' the song is
e|-------------------------|
B|-------------------------|
G|-------------------------|
D|-------------------------|
A|1212121212121212-77777777|
B|1010101010101010-55555555|
But otherwise, kickass tab for a kickass song!

I don't mean to be picky, but that part sounds even more totally kickass if add the extra 5th and the third octave by barring with your pinkie as follows:
e|---------------------------------------|
B|---------------------------------------|
G|14-14-14-14-14-14-14-14-9-9-9-9-9-9-9-9|
D|14-14-14-14-14-14-14-14-9-9-9-9-9-9-9-9|
A|12-12-12-12-12-12-12-12-7-7-7-7-7-7-7-7|
B|10-10-10-10-10-10-10-10-5-5-5-5-5-5-5-5|

Either way, it's still an awesome tab for an awesome song.

https://tabs.ultimate-guitar.com/r/rage_against_the_machine/maggies_farm_ver2_tab.htm