Tablature guitare : Rage Against The Machine – Freedom

Freedom-Ratm
RATM

Drop D:
D A D G B E


[Intro] w/ Flanger

E|---------------------------------------------------------x-x-x---|
B|---------------------------------------------------------x-x-x---|
G|---------------------------------------------------------x-x-x---|
D|-----------------------------------------------------------------|
A|-5-------3-----------5---5-------5-------3-----------5-----------|
D|---0-3-5-----5-3-5-3---------0-3---0-3-5-----5-3-5-3-------------|

E|-----------------------------------------------------------------|
B|-----------------------------------------------------------------|
G|-----------------------------------------------------------------|
D|-----------------------------------------------------5-4-3-------|
A|-5-------3-----------5---5-------5-------3-----------------5-4-3-|
D|---0-3-5-----5-3-5-3---------0-3---0-3-5-----5-3-5-3-------------|

E|---------------------------------------------------------22\-----|
B|-----------------------------------------------------------------|
G|-----------------------------------------------------------------|
D|-------------------------------------------------------------12\-|
A|-5-------3-----------5----5-------5-------3-----------5------12\-|
D|---0-3-5-----5-3-5-3----------0-3---0-3-5-----5-3-5-3------------|

E|-----------------------------------------------------------------|
B|-----------------------------------------------------------------|
G|-----------------------------------------------------------------|
D|-----------------------------------------------------------------|
A|-5-------3-----------5---5-------5-------3-----------5-----------|
D|---0-3-5-----5-3-5-3---------0-3---0-3-5-----5-3-5-3-------------|


[Verse]

E|-10---------10-10-------------10-10-10--------|
B|-10---------10-10-------------10-10-10--------|
G|--5----------5--5--------------5--5--5--------|
D|--5----------5--5--------------5--5--5--------|
A|--5----------5--5--------------5--5--5--------|
D|--0----0--0--0--0--0--0--0--0--0--0--0--0--0--|

E|-10---------10-10----------------------------|
B|-10---------10-10-------------5\4/5-5--------|
G|--5----------5--5-------------5\4/5-5--------|
D|--5----------5--5-------------5\4/5-5--------|
A|--5----------5--5----------------------------|
D|--0----0--0--0--0--0--0--0--0----------0--0--|

...brotha...

E|-10------------------------------------------|
B|-10------------------------------------------|
G|--9------------------------------------------|
D|-10------------------------------------------|
A|---------------------------------------------|
D|--0------------------------------------------|

...anger is a gift...

 x2
E|-----------------------------------------------------------|
B|-----------------------------------------------------------|
G|-----------------------------------------------------------|
D|-----------------------------------------------------------|
A|-3-3-3-3-----3----5-3---3--5--3-3-3-3-----3----5-3---3--5--|
D|---------5-3----------5---------------5-3----------5-------|

gtr. 2

E|-----------------------------------------------------------|
B|-----------------------------------------------------------|
G|-----------------------------------------------------------|
D|-----------------------------------------------------------|
A|-7-7-7-7-----7----9-7---7--9--7-7-7-7-----7----9-7---7--9--|
D|---------9-7----------9---------------9-7----------9-------|


[Solo]

E|-----------------------------------------------------------------|
B|-----------------------------------------------------------------|
G|-------10~~~~~~~~-10-p-9~~~~~~~\-------------------------10b~----|
D|-10/12---------------------------------10~~~~------10h12------12-|
A|--------------------------------/10h12-------10h12---------------|
D|-----------------------------------------------------------------|

E|-----------------------------------------------------------------|
B|----------------------------10h11p10-----------------------------|
G|-----------10~~~~~~~~-10h12----------12p10\9~~~~~~~~~~\----------|
D|-----------------------------------------------------------------|
A|------5/12-------------------------------------------------------|
D|-----------------------------------------------------------------|

E|----12-13-12----------12-13-12---------12-13-15-15b~~15-13-15-13--------22---|
B|---x---------13------x---------13-----x--------------------------15\---------|
G|--x-----------------x----------------x---------------------------------------|
D|-x-----------------x----------------x----------------------------------------|
A|-----------------------------------------------------------------------------|
D|-----------------------------------------------------------------------------|

 x4 w/ flanger
E|--------------------------------------------------------|
B|--------------------------------------------------------|
G|--------------------------------------------------------|
D|-------------5-3-5-3-5----------------------------------|
A|-5-3-5-3-5---------------3-2-3-2-3----------------------|
D|-------------------------------------5-3-5-3-5-3---x-3--|

then

E|-10--------------------------------|
B|-10-------10-10---------10---x/----|
G|--9--------9--9----------9---x/----|
D|-10-------10-10---------10---x/----|
A|----------10-10---------10---x/----|
D|----x-x-x-------x-x-x-x------------|


[Outro]

 x16
E|-----------------------------------|
B|-----------------------------------|
G|-----------5-6-7-----------5-6-7---|
D|-----5-6-7-----------5-6-7---------|
A|-5-8-------------5-8---------------|
D|-----------------------------------|

then

E|----------------------------------------|
B|----------------------------------------|
G|----------------------------------------|
D|-0-3-5-6-7-10-11-12-0-3-5-6-7-10-11-12--|
A|-0-3-5-6-7-10-11-12-0-3-5-6-7-10-11-12--|   x8
D|-0-3-5-6-7-10-11-12-0-3-5-6-7-10-11-12--|

D5 let ring


that’s all

trevor jones
timmy91199@yahoo.ca


************************************

| x  Dead note
| h  Hammer-on
| p  Pull-off
| /  Slide up
| \  Slide down
| ~  Vibrato

************************************

https://tabs.ultimate-guitar.com/r/rage_against_the_machine/freedom_tab.htm