Tablature guitare : Rage Against – Injection

Rise Against
Injection
The Sufferer and the Witness

I tried. Have fun

Tunning: half step down (Eb, G#, C#, F#, Bb, Eb)

Intro/chorus

guitar 1
|------------------|-----------------|-----------------------------------|
|-*----------------|-----------------|-----------------|-----------------|
|--17-1717-16-1616-|-14-1414-12-1212-|-17-1717-16-1616-|-14-1414-12-1212-|
|--x--x-x--x--x-x--|-x--x-x--x--x-x--|-x--x-x--x--x-x--|-x--x-x--x--x-x--|
|-*15-1515-14-1414-|-12-1212-10-1010-|-15-1515-14-1414-|-12-1212-10-1010-|
|------------------|-----------------|-----------------|-----------------|
|
|guitar 2
|------------------|-----------------|-----------------|-----------------|
|-*----------------|-----------------|-----------------|-----------------|
|------------------|-----------------|-10-1010-10-1010-|-10-1010-10-1010-|
|--7--7-7---7--7-7-|-7--7-7---7--7-7-|-10-1010-10-1010-|-10-1010-10-1010-|
|-*7--7-7---7--7-7-|-7--7-7---7--7-7-|-8--8-8--8--8-8--|-8--8-8--8--8-8--|
|--5--5-5---5--5-5-|-5--5-5---5--5-5-|-----------------|-----------------|


|-------------------|-------------------------|
|-------------------|-------------------------|
|-17-1717-1616-1717-|-19-19-17-17-16-16-14-16-|
|-x--x-x--x-x--x-x--|-x--x--x--x--x--x--x--x--|
|-15-1515-1414-1515-|-17-17-15-15-14-14-12-14-|
|-------------------|-------------------------|
|
|
|-------------------|-------------------------|
|-------------------|-------------------------|
|-------------------|-------------------------|
|-10-10101010101010-|-10-10-1010-10-10-101010-|
|-10-10101010101010-|-10-10-1010-10-10-101010-|
|-8--8-8-8-8-8-8-8--|-8--8--8-8--8--8--8-8-8--|


|------------------|-------------------|
|------------------|-----------------*-|
|-1212121212121212-|-1212121212121212--|
|-x-x-x-x-x-x-x-x--|-x-x-x-x-x-x-x-x---|
|-1010101010101010-|-1010101010101010*-|
|-tens-------------|-------------------|
|
|
|------------------|-------------------|
|------------------|-----------------*-|
|------------------|-------------------|
|-5-5-5-5-5-5-5-5--|-5-5-5-5-5-5-5-5---|
|-5-5-5-5-5-5-5-5--|-5-5-5-5-5-5-5-5-*-|
|-3-3-3-3-3-3-3-3--|-3-3-3-3-3-3-3-3---|


pre verse
|----------------|4x
|-*----------8-*-|
|----------------|
|------7-9h10----|
|-*-0-0--------*-|
|----------------|
|   . .
|
|----------------|
|-*------------*-|
|----------------|
|----------------|
|-*------------*-|
|----------------|


verse

|----------------|x15
|-*----------8-*-|
|----------------|
|------7-9h10----|
|-*-0-0--------*-|
|----------------|
|   . .
|
|----------------|
|----------------|
|----------------|
|----------------|
|-7~-------------|
|-5~-------------|hit the Ab5 every 5 times


|------------|
|----------8-|
|------------|
|----7-9h10--|
|-0-0--------|
|------------|
| . .
|
|------------|
|------------|
|------------|
|------5~----|
|-3~---3~----|
|-1~---------|


Pre-Chorus 1
|-----------|----------|-------------------|--------------------|
|-----------|----------|-------------------|--------------------|
|-9-9999999-|-99999999-|-10-10101010101010-|-12--12121212121212-|
|-x-xxxxxxx-|-xxxxxxxx-|-x--x-x-x-x-x-x-x--|-x---x-x-x-x-x-x-x--|
|-7-7777777-|-77777777-|-8--8-8-8-8-8-8-8--|-10--10101010101010-|
|-----------|----------|-------------------|--------------------|
|
|
|-----------|----------|-------------------|--------------------|
|-----------|----------|-------------------|--------------------|
|-----------|----------|-------------------|--------------------|
|-2-2222222-|-22222222-|-2--2-2-2-2-2-2-2--|-2---2-2-2-2-2-2-2--|
|-2-2222222-|-22222222-|-2--2-2-2-2-2-2-2--|-2---2-2-2-2-2-2-2--|
|-0-0000000-|-00000000-|-0--0-0-0-0-0-0-0--|-0---0-0-0-0-0-0-0--|


play chorus


play pre-verse


Verse 2
guitar 1 plays samething

guitar 2
|-----------------------------------------------|
|-----------------------------------------------|
|-12-14---------------10\9----------------------|
|-x--x----------------x--x------------//////////|
|-10/12---------------8\-7------------pickslide-|
|-------------------------------------//////////|


Pre-chorus 2
guitar 1 plays same

guitar 2
|----|----|----|----|
|----|----|----|----|
|----|----|----|----|
|----|----|----|----|
|-2--|----|-2--|-2--|
|-0--|----|-0--|-0--|


play chorus


bridge


both guitars
|--------------|-------------|-----|-------------|---------------|
|-*------------|-------------|-----|-------------|-------------*-|
|--22-2---22-2-|-------------|-4/5-|-------------|---------------|
|--22-2---22-2-|-33-3---33-3-|-x-x-|-55-5---55-5-|-33-3---33-3---|
|-*00-0---00-0-|-33-3---33-3-|-2/3-|-55-5---55-5-|-33-3---33-3-*-|
|--------------|-11-1---11-1-|-----|-33-3---33-3-|-11-1---11-1---|


|-------------------|------------------|-----------------|-----------------|
|-*-----------------|------------------|-----------------|-----------------|
|--1414141414141414-|-1414141414141414-|-1010101010101010|-101010101010010-|
|--x-x-x-x-x-x-x-x--|-x-x-x-x-x-x-x-x--|-x-x-x-x-x-x-x-x-|-x-x-x-x-x-x-x-x-|
|-*1212121212121212-|-1212121212121212-|-8-8-8-8-8-8-8-8-|-8-8-8-8-8-8-8-8-|
|-------------------|------------------|-----------------|-----------------|
|(only play octaves second time, first time play what guitar 2 does)
|
|-------------------|------------------|-----------------|-----------------|
|-*-----------------|------------------|-----------------|-----------------|
|--2-2-2-2-2-2-2-2--|-2-2-2-2-2-2-2-2--|-----------------|-----------------|
|--2-2-2-2-2-2-2-2--|-2-2-2-2-2-2-2-2--|-3-3-3-3-3-3-3-3-|-3-3-3-3-3-3-3-3-|
|-*0-0-0-0-0-0-0-0--|-0-0-0-0-0-0-0-0--|-3-3-3-3-3-3-3-3-|-3-3-3-3-3-3-3-3-|
|-------------------|------------------|-1-1-1-1-1-1-1-1-|-1-1-1-1-1-1-1-1-|


|----------------------------------------------|
|----------|----------|----------|-----------*-|
|-99999999-|-99999999-|-77777777-|-777777777---|
|-xxxxxxxx-|-xxxxxxxx-|-xxxxxxxx-|-xxxxxxxxx---|
|-77777777-|-77777777-|-55555555-|-555555555-*-|
|----------|----------|----------|-------------|
|
|
|----------------------------------------------|
|----------|----------|----------|-----------*-|
|----------|----------|----------|-------------|
|-55555555-|-55555555-|-33333333-|3333333333---|
|-55555555-|-55555555-|-33333333-|3333333333-*-|
|-33333333-|-33333333-|-11111111-|-111111111---|


play chorus riff 2 times then play:

Guitar 3 plays verse riff

|-------------|-------------|-------------|-------------|-------------|
|-------------|-------------|-------------|-------------|-------------|
|-17-17-17-17-|-17-17-17-17-|-17-17-17-17-|-17-17-17-17-|-17-17-17-17-|
|-x--x--x--x--|-x--x--x--x--|-x--x--x--x--|-x--x--x--x--|-x--x--x--x--|
|-15-15-15-15-|-15-15-15-15-|-15-15-15-15-|-15-15-15-15-|-15-15-15-15-|
|-------------|-------------|-------------|-------------|-------------|
|
|
|-------------|-------------|-------------|-------------|-------------|
|-------------|-------------|-------------|-------------|-------------|
|-------------|-------------|-------------|-------------|-------------|
|-7--7--7--7--|-7--7--7--7--|-7--7--7--7--|-7--7--7--7--|-7--7--7--7--|
|-7--7--7--7--|-7--7--7--7--|-7--7--7--7--|-7--7--7--7--|-7--7--7--7--|
|-5--5--5--5--|-5--5--5--5--|-5--5--5--5--|-5--5--5--5--|-5--5--5--5--|


|-------------|-------------|
|-------------|-------------|
|-17-17-17-17-|-17-17-17-17-|
|-x--x--x--x--|-x--x--x--x--|
|-15-15-15-15-|-15-15-15-15-|
|-------------|-------------|
|
|
|-------------|-------------|
|-------------|-------------|
|-------------|-------------|
|-7--7--7--7--|-7--7--7--7--|
|-7--7--7--7--|-7--7--7--7--|
|-5--5--5--5--|-5--5--5--5--|

end on:
|----|
|----|
|----|
|-17~|
|-x--|
|-15~|
|
|
|----|
|----|
|----|
|-7~-|
|-7~-|
|-5~-|



thats it.

KEY
~: let ring
\:alide down
/:slide up
H: hammer on
." palm
Suggest correction

https://tabs.ultimate-guitar.com/r/rise_against/injection_ver2_tab.htm