Tablature guitare : Rage Against – I Don’t Want To Be Here Anymore

Author
Difficulty
Tuning
intermediate
D# G# C# F# A# D#
Rise Against - I don't want to be here anymore

I figured out the tabs by ear, so there might be some mistakes! 
Tuning: halfstep-Down(Eb-Standard)
When you need some help you can watch my cover of the Song:


Hope you enjoy 😉

 X     =Deathnote
 *     =Palmute
 (...) =part for the comment below
 ///// =Pickslide
 ~     =let ring
 /     =Slide from the note before to the note after the "/"


Intro:

Lead-Guitar
|----------------------------------------------------(-10-10-----------8-8--)-10-10-----------------|
|-888888888888---------------------------------------(-------8-8-11-11------)-------8-8-11-11-10-10-|
|--------------12-12-10-(-7---3-5-)-----------------------------------------------------------------|
|---------------X--X--X-(-X-5-X-X-)-8-8-8-8-7-7-7-7-------------------------------------------------|
|--------------10-10--8-(-5-X-1-3-)-X-X-X-X-X-X-X-X-------------------------------------------------|
|-----------------------(---3-----)-6-6-6-6-5-5-5-5-------------------------------------------------|
  ************       This part 7 times                  This part 3 times    then this little Variation...

|------------------------------------------------------------------------------------|
|-11-11-11-11-10-10-10-10-8-8-8-8-6-6-6-6-11---11---10---10---8---8---6---6---8~~~---|
|--------------------------------------------0----0----0----0---0---0---0---0--------|
|------------------------------------------------------------------------------------|
|------------------------------------------------------------------------------------|
|------------------------------------------------------------------------------------|
  ...And end the Intro with this

Rhythm-Guitar
|-------------------------------------------------------------------------------------------------------------|
|-------------------------------------------------------------------------------------------------------------|
|--------------------------1010101010101010-88888888-------------------1010101010101010-1212121212121212------|
|--------55555555-88888888-1010101010101010-88888888-55555555-88888888-1010101010101010-1212121212121212-XXXX-|
|-//////-55555555-88888888-8-8-8-8-8-8-8-8--66666666-55555555-88888888-8-8-8-8-8-8-8-8--1010101010101010-XXXX-|
|--------33333333-66666666---------------------------33333333-66666666-----------------------------------XXXX-|

|---------------------------------------------------------------------------------------------|
|---------------------------------------------------------------------------------------------|
|---------------------------------------------------------------------------------------------|
|-------------------1010101010101010-88888888----------1010101010101010-12~----10-10-1012~----|
|-55555555-88888888-1010101010101010-88888888-88888888-1010101010101010-12~----10-10-1012~----|
|-55555555-88888888-8-8-8-8-8-8-8-8--66666666-88888888-8-8-8-8-8-8-8-8--10~----8--8--8-10~----|
|-33333333-66666666---------------------------66666666----------------------------------------|

Verse 1:

Lead+Rhythm-Guitar
(They do the same except the Pickslide of the Rhythm-Guitar in the beginning)
|-------------------------------------------------------------------------------------------|
|-------------------------------------------------------------------------------------------|
|-7-8-7--------------------------------------------10-1010101010-12-12121212121212121212----|
|-7-8-7--5-55555555555-8-88888888888-10-1010101010-10-1010101010-12-12121212121212121212----|
|-5-6-5--5-55555555555-8-88888888888-10-1010101010-8--8-8-8-8-8--10-10101010101010101010----|
|--------3-33333333333-6-66666666666-8--8-8-8-8-8-------------------------------------------|

|----------------------------------------------------------------------------------------|
|----------------------------------------------------------------------------------------|
|-12-1212121212121212121212-10-1010101010101010101010-12-1212121212121212121212-7-8-7----|
|-12-1212121212121212121212-10-1010101010101010101010-12-1212121212121212121212-7-8-7----|
|-10-1010101010101010101010-8--8-8-8-8-8-8-8-8-8-8-8--10-1010101010101010101010-5-6-5----|
|----------------------------------------------------------------------------------------|
You have to figure out the Strumming for the Rhyhtm by yourself (It's a typical Punk-Strumming)

Interlude:

Lead+Rhythm-Guitar
|--------------------------------------------------------------------------------------|
|--------------------------------------------------------------------------------------|
|----55----------------55----------------55-------5555-77777777-1010101010101010-------|
|-88-55-55-XXXXXXXX-88-55-55-XXXXXXXX-88-55-55-XX-5555-77777777-1010101010101010-5~----|
|-88-33-55-XXXXXXXX-88-33-55-XXXXXXXX-88-33-55-XX-3333-55555555-8-8-8-8-8-8-8-8--5~----|
|-66----33-XXXXXXXX-66----33-XXXXXXXX-66----33-XX--------------------------------3~----|

Prechorus:

Only Rhythm-Guitar
|----------------------------------------|
|-------13~11~----------13~1111111111----|
|----10~10~12~---- --10~10~1212121212----|
|-12~12~----------12~12~-----------------|
|-10~-------------10~--------------------|
|----------------------------------------|

Chorus:

Lead Guitar
|-(10-10----------8-8-)-10-10-----------(-10-10-----------8-8-)-10--------------------------------------------|
|-(-----8-8-11-11-----)-------8-8-11----(-------8-8-11-11-----)-------11---11---10---10---8---8---6---6---8~~-|
|------------------------------------------------------------------------0----0----0----0---0---0---0---0-----|
|-------------------------------------------------------------------------------------------------------------|
|-------------------------------------------------------------------------------------------------------------|
|-------------------------------------------------------------------------------------------------------------|
    Repeat 7 times                         Repeat 6 times

Rhythm-Guitar
|-------------------------------------------------------------------------------------------------|
|-------------------------------------------------------------------------------------------------|
|-------------------1010101010101010-88888888-------------------1010101010101010-12121212---------|
|-55555555-88888888-1010101010101010-88888888-55555555-88888888-1010101010101010-12121212-XXXX----|
|-55555555-88888888-8-8-8-8-8-8-8-8--66666666-55555555-88888888-8-8-8-8-8-8-8-8--10101010-XXXX----|
|-33333333-66666666---------------------------33333333-66666666---------------------------XXXX----|

|------------------------------------------------------------------------------------------------------|
|------------------------------------------------------------------------------------------------------|
|------------------------------------------------------------------------------------------------------|
|-------------------1010101010101010-88888888-------------------1010101010101010-12-----10-10-1012~----|
|-55555555-88888888-1010101010101010-88888888-55555555-88888888-1010101010101010-12-5~--10-10-1012~----|
|-55555555-88888888-8-8-8-8-8-8-8-8--66666666-55555555-88888888-8-8-8-8-8-8-8-8--10-5~--8--8--8-10~----|
|-33333333-66666666---------------------------33333333-66666666---------------------3~-----------------|

Verse2:

Lead-Guitar
|---------------------------------------------------------------------------|
|---------------------------------------------------------------------------|
|---------------10-10101010-------------------------------------------------|
|-5-5555-8-8888-10-10101010-------------------------------------------------|
|-5-5555-8-8888-8--8-8-8-8--10-10101010-10-10101010-10-10101010---8-10-8----|
|-3-3333-6-6666-------------8--8-8-8-8--8--8-8-8-8--8--8-8-8-8--8-----------|
  * **** * **** *  * * * *   (from here the Rhythm-Guitar kicks in) 

Interlude2:

Lead-Guitar
|------------------------------------------------------------------------------------|
|------------------------------------------------------------------------------------|
|----55----------------55----------------55-------5555-77777777-1010101010101010-----|
|-88-55-55-XXXXXXXX-88-55-55-XXXXXXXX-88-55-55-XX-5555-77777777-1010101010101010-----|
|-88-33-55-XXXXXXXX-88-33-55-XXXXXXXX-88-33-55-XX-3333-55555555-8-8-8-8-8-8-8-8------|
|-66----33-XXXXXXXX-66----33-XXXXXXXX-66----33-XX------------------------------------|

Rhythm-Guitar
|------------------------------------------------------------------------------------|
|------------------------------------------------------------------------------------|
|----55----------------55----------------55-------5555-77777777-10101010-------------|
|-88-55-55-XXXXXXXX-88-55-55-XXXXXXXX-88-55-55-XX-5555-77777777-10101010-------------|
|-88-33-55-XXXXXXXX-88-33-55-XXXXXXXX-88-33-55-XX-3333-55555555-8-8-8-8--///////-----|
|-66----33-XXXXXXXX-66----33-XXXXXXXX-66----33-XX------------------------///////-----|

Chorus2:

Lead Guitar
|-(10-10----------8-8-)-10-10-----------|
|-(-----8-8-11-11-----)-------8-8-11----|
|---------------------------------------|
|---------------------------------------|
|---------------------------------------|
|---------------------------------------|
    Repeat 7 times
                      
|------------------------------------------------------------------------------------------------------|
|------------------------------------------------------------------------------------------------------|
|------------------------------------------------------------------------------------------------------|
|-------------------1010101010101010-88888888-------------------1010101010101010-1212121212121212------|
|-55555555-88888888-1010101010101010-88888888-55555555-88888888-1010101010101010-1212121212121212------|
|-55555555-88888888-8-8-8-8-8-8-8-8--66666666-55555555-88888888-8-8-8-8-8-8-8-8--1010101010101010------|
|-33333333-66666666---------------------------33333333-66666666----------------------------------------|


Rhythm-Guitar
|-------------------------------------------------------------------------------------------------|
|-------------------------------------------------------------------------------------------------|
|-------------------1010101010101010-88888888-------------------1010101010101010-12121212---------|
|-55555555-88888888-1010101010101010-88888888-55555555-88888888-1010101010101010-12121212-XXXX----|
|-55555555-88888888-8-8-8-8-8-8-8-8--66666666-55555555-88888888-8-8-8-8-8-8-8-8--10101010-XXXX----|
|-33333333-66666666---------------------------33333333-66666666---------------------------XXXX----|

                      
|------------------------------------------------------------------------------------------------------|
|------------------------------------------------------------------------------------------------------|
|------------------------------------------------------------------------------------------------------|
|-------------------1010101010101010-88888888-------------------1010101010101010-1212121212121212------|
|-55555555-88888888-1010101010101010-88888888-55555555-88888888-1010101010101010-1212121212121212------|
|-55555555-88888888-8-8-8-8-8-8-8-8--66666666-55555555-88888888-8-8-8-8-8-8-8-8--1010101010101010------|
|-33333333-66666666---------------------------33333333-66666666----------------------------------------|

Solo:

Lead-Guitar
|---------------------------------------3/66665555---------------------6-5-3----|
|-----------------------------------3333-------------3/6-3-----3---3------------|
|-7-0-0-3-3-5-5-0-7-0-0-3-3-5-3-3333---------------3------5-3-5-5-3-0-0~--------|
|-------------------------------------------------------------------------------|
|-------------------------------------------------------------------------------|
|-------------------------------------------------------------------------------|

Rhythm-Guitar
|--------------------------------------------------------------------------|
|--------------------------------------------------------------------------|
|--------------------------------------------------------------------------|
|-88888888-33333333-5555555555555555-88888888-33333333-5555555555555555----|
|-88888888-33333333-5555555555555555-88888888-33333333-5555555555555555----|
|-66666666-11111111-3333333333333333-66666666-11111111-3333333333333333----|

Bridge1:

Lead-Guitar
|--------------------------------------------------------------------------------|
|--------------------------------------------------------------------------------|
|-----------------5-5-5-5-------------------------10-10-10-10-10-10-10-10-12~----|
|-8-8-8-8-3-3-3-3-5-5-5-5-5-5-5-5-8-8-8-8-8-8-8-8-10-10-10-10-10-10-10-10-12~----|
|-8-8-8-8-3-3-3-3-3-3-3-3-5-5-5-5-8-8-8-8-8-8-8-8-8--8--8--8--8--8--8--8--10~----|
|-6-6-6-6-1-1-1-1---------3-3-3-3-6-6-6-6-6-6-6-6--------------------------------|

Rhythm-Guitar
|-6-6-6-6-8-8-10-10-13--13--13--13--13--13--13--13-------|
|--6-6-6-6-6-6--8--8--13--13--13--13--13--13--13--13-----|
|--------------------------------------------------------|
|--------------------------------------------------------|
|--------------------------------------------------------|
|--------------------------------------------------------|

Bridge2:

Only Rhythm-Guitar
|---------------------------------------------------|
|-(--3----3----3----1---)---3----3----3----11111----|
|-(-0-0--0-0--0-0--0-0--)--0-0--0-0--0-0---00000----|
|-(---------3-----------)-----------3---------------|
|-(-----1---------3-----)-----1---------------------|
|-(3--------------------)-3-------------------------|
      Repeat 3 Times

Chorus3:

Lead-Guitar
|------------------------------------------------------------------------------------------------------|
|------------------------------------------------------------------------------------------------------|
|------------------------------------------------------------------------------------------------------|
|-------------------1010101010101010-88888888-------------------1010101010101010-1212121212121212------|
|-55555555-88888888-1010101010101010-88888888-55555555-88888888-1010101010101010-1212121212121212------|
|-55555555-88888888-8-8-8-8-8-8-8-8--66666666-55555555-88888888-8-8-8-8-8-8-8-8--1010101010101010------|
|-33333333-66666666---------------------------33333333-66666666----------------------------------------|

|-(10-10-----------8-8-)-10-10-----13-13-10-10-(10-10-----------8-8)----|
|-(------8-8-11-11-----)-------8-8-------------(------8-8-11-11----)----|
|-----------------------------------------------------------------------|
|-----------------------------------------------------------------------|
|-----------------------------------------------------------------------|
|-----------------------------------------------------------------------|
    Repeat 3 times                               Repeat 4 times

Rhythm-Guitar
|------------------------------------------------------------------------------------------------------|
|------------------------------------------------------------------------------------------------------|
|------------------------------------------------------------------------------------------------------|
|-------------------1010101010101010-88888888-------------------1010101010101010-1212121212121212------|
|-55555555-88888888-1010101010101010-88888888-55555555-88888888-1010101010101010-1212121212121212------|
|-55555555-88888888-8-8-8-8-8-8-8-8--66666666-55555555-88888888-8-8-8-8-8-8-8-8--1010101010101010------|
|-33333333-66666666---------------------------33333333-66666666----------------------------------------|

|------------------------------------------------------------------------------------------------------|
|------------------------------------------------------------------------------------------------------|
|------------------------------------------------------------------------------------------------------|
|-------------------1010101010101010-88888888-------------------1010101010101010-1212121212121212------|
|-55555555-88888888-1010101010101010-88888888-55555555-88888888-1010101010101010-1212121212121212------|
|-55555555-88888888-8-8-8-8-8-8-8-8--66666666-55555555-88888888-8-8-8-8-8-8-8-8--1010101010101010------|
|-33333333-66666666---------------------------33333333-66666666----------------------------------------|

Outro:

Lead+Rhythm-Guitar
|---------------------------------------------------------------------------------------------|
|---------------------------------------------------------------------------------------------|
|---------------------------------------------------------------------------------------------|
|-------------------1010101010101010-88888888-------------------1010101010101010-88888888/----|
|-55555555-88888888-1010101010101010-88888888-55555555-88888888-1010101010101010-88888888/----|
|-55555555-88888888-8-8-8-8-8-8-8-8--66666666-55555555-88888888-8-8-8-8-8-8-8-8--66666666/----|
|-33333333-66666666---------------------------33333333-66666666-------------------------------|

https://tabs.ultimate-guitar.com/r/rise_against/i_dont_want_to_be_here_anymore_ver3_tab.htm