Tablature guitare : Rage Against – Blood To Bleed

----------------------------------------------------------------------------
                             Blood To Bleed - Rise Against
----------------------------------------------------------------------------
Tabbed by:Canadianezzy
Email:Canadianezzy@hotmail.com

Tuning:Standard Tuning

(Bass Intro)

  [Verse](x2)
e|-----------------------------------------------------------------|
B|-----------------------------------------------------------------|
G|-6-6666666-444-6-666666666-222-6-666666666666-444---------666666-|
D|-6-6666666-444-6-666666666-222-6-666666666666-444-222-444-666666-|
A|-4-4444444-222-4-444444444-000-4-444444444444-222-222-444-444444-|
E|--------------------------------------------------000-222--------|
 pm******* ***   ********* ***   ************ ***

  [Chorus] (Guitar 1)
e|----------------------------------------|
B|----------------------------------------|
G|-99999-8-99999-8-111111-13-13-13-999-888|
D|-xxxxx-x-xxxxx-x-x-x-x--x--x--x--xxx-xxx|
A|-77777-6-77777-6-9-9-9--11-11-11-777-666|
E|----------------------------------------|
                   
e|------------------------------------|
B|------------------------------------|
G|-99999-8-99999-8-888-11-11-11-999999|
D|-xxxxx-x-xxxxx-x-xxx-x--x--x--xxxxxx|
A|-77777-6-77777-6-666-9--9--9--777777|
E|------------------------------------|

e|----------------------------------------|
B|----------------------------------------|
G|-99999-8-99999-8-111111-13-13-13-999-888|
D|-xxxxx-x-xxxxx-x-x-x-x--x--x--x--xxx-xxx|
A|-77777-6-77777-6-9-9-9--11-11-11-777-666|
E|----------------------------------------|

e|------------------------------------|
B|------------------------------------|
G|-99999-8-99999-8-999-13-13-13-11-11-|
D|-xxxxx-x-xxxxx-x-xxx-x--x--x--x--x--|
A|-77777-6-77777-6-777-11-11-11-9--9--|
E|------------------------------------|

  [Chorus] (Guitar 2)
e|----------------------------|
B|----------------------------|
G|-222222-222222-444444-666666|
D|-222222-222222-444444-666666|
A|-000000-222222-222222-444444|
E|--------000000--------------|

e|-----------------------------|
B|-----------------------------|
G|-222222-222222-444444-666-444|
D|-222222-222222-444444-666-444|
A|-000000-222222-222222-444-222|
E|--------000000---------------|

e|----------------------------|
B|----------------------------|
G|-222222-222222-444444-666666|
D|-222222-222222-444444-666666|
A|-000000-222222-222222-444444|
E|--------000000--------------|

e|------------------------------------------------|
B|------------------------------------------------|
G|-222222-222222-444444-222222222222-444444444444-|
D|-222222-222222-444444-222222222222-444444444444-|
A|-000000-222222-222222-000000000000-222222222222-|
E|--------000000----------------------------------|

[Verse] (x2)

[Chorus] (x2)

  [Solo:]
e|-444444-----0-2-0---7777----9----------------------------|
B|--------2-4-------4------10---9--------------------------|
G|--------------------------------/6-/8-/9-/11-9999-11-9-8-|
D|---------------------------------------------------------|
A|---------------------------------------------------------|
E|---------------------------------------------------------|


e|-44444-5-777777-12-12-12-12-9-12-11-7-9999-7-5-444444-5-4-0~---------------|
B|----------------------------------------------------------------4444-5-4-2-|
G|---------------------------------------------------------------------------|
D|---------------------------------------------------------------------------|
A|---------------------------------------------------------------------------|
E|---------------------------------------------------------------------------|

  2nd Guitar (behind the solo) (x2)
e|---------------------------------------------------------------------------|
B|---------------------------------------------------------------------------|
G|-666666666666-222222222222--------------444444444444-----------------------|
D|-666666666666-222222222222-222222222222-444444444444-----------------------|
A|-444444444444-000000000000-222222222222-222222222222-----------------------|
E|---------------------------000000000000------------------------------------|
         Lead plays this during bridge in  backround
part 1
---------------------------------|
-2-2-2-2-2-2-2-2-0-2-4-----------|
---------------------------------|  x3 then ...
---------------------------------|
---------------------------------|
---------------------------------|
part 2
---------------------------------|
-------4-4-4-2-2-2--0-2-4-0------|
-1-1-1---------------------------| then go back into part 1
---------------------------------|
---------------------------------|
---------------------------------|


  [Bridge] (x3)
e|----------------------------------------------------|----------------------|
B|----------------------------------------------------|----------------------|
G|-666666666666-222222222222--------------------------|6---------------------|
D|-666666666666-222222222222-222222222222-666666666666|6---------------------|
A|-444444444444-000000000000-222222222222-666666666666|4---------------------|
E|---------------------------000000000000-444444444444|----------------------|

(Bass Part)

[Chorus] (x2)

On chorus the last time, do the 4th endings like so; 4 times
e|-------------------------------------------------------------------------|
B|-------------------------------------------------------------------------|
G|-999999-13-13-13--11-11-11-99-8------------------------------------------|
D|-xxxxxx-x--x--x---x--x--x--xx-x------------------------------------------|
A|-777777-11-11-11--9--9--9--77-6------------------------------------------|
E|-------------------------------------------------------------------------|

End on:
---
---
-6-
-6-
-4-
---


************************************

| x  Dead note
| /  Slide up
| ~  Vibrato

************************************

https://tabs.ultimate-guitar.com/r/rise_against/blood_to_bleed_ver2_tab.htm