Tablature guitare : Pixies – Monkey Gone To Heaven

Tabbed by:CMM
Email:colin_michael_muppet@hotmail.com

Tuning:Standard

(Main Riff)
e|-------------------------------------------------|
B|-------------------------------------------------|
G|-------------7-------------(4)-------------(7)---|
D|-2--4--4--7--7-------------(4)-------------(7)---|
A|-2--4--4--7--5-------------(2)-------------(5)---|
E|-0--2--2--5--------------------------------------|

(Interlude 1)
e|----------------------------------------------------------------------|
B|-5--5--7--7--7--7----5--5--7--7--7--7----5--5--5--7--7--7----5--5--5--|
G|-6--6--7--7--7--7----6--6--7--7--7--7----6--6--6--7--7--7----4--6--6--|
D|----------------------------------------------------------------------|
A|----------------------------------------------------------------------|
E|----------------------------------------------------------------------|

e|-----------|
B|-7--7------|
G|-9--7\(6)--|
D|-----------|
A|-----------|
E|-----------|

(Interlude 2)
e|----------------------------------------------------------------------|
B|-5----3----2----2------2----3----3----3--------2----3----3----3--/7---|
G|-7b9--5b7--4b6--4------4b6--5b7--5b7--5b7------4b6--5b7--5b7--5b7-----|
D|----------------------------------------------------------------------|
A|----------------------------------------------------------------------|
E|----------------------------------------------------------------------|

e|----------------------------------------------------------------------|
B|----7--7-7----5----3----2----2-------5-5-5-7-7-7-7-7--5-5-5-7-7-7-7-7-|
G|--------------7b9--5b7--4b6--4b6-----6-6-6-7-7-7-7-7--6-6-6-7-7-7-7-7-|
D|----------------------------------------------------------------------|
A|----------------------------------------------------------------------|
E|----------------------------------------------------------------------|

e|---------------------------------------|
B|-5-5-5-7-7-7-7-7---5--5--5--7--7-------|
G|-6-6-6-7-7-7-7-7---4--6--6--9--7\(6)---|
D|---------------------------------------|
A|---------------------------------------|
E|---------------------------------------|

(Outro)
e|-------------------------------------------------------------------------|
B|--5----3----2----2----5-5-5-7-7-7-7-7--5-5-5-7-7-7-7-7--5-5-5-7-7-7-7-7--|
G|--7b9--5b7--4b6--4b6--6-6-6-7-7-7-7-7--6-6-6-7-7-7-7-7--6-6-6-7-7-7-7-7--|
D|-------------------------------------------------------------------------|
A|-------------------------------------------------------------------------|
E|-------------------------------------------------------------------------|
Note: And this is repeated several times.



************************************

| (n)  Ghost note
| b    Bend
| /    Slide up 

************************************

https://tabs.ultimate-guitar.com/p/pixies/monkey_gone_to_heaven_ver2_tab.htm