Tablature guitare : Pixies – Hey

This tab is an amalgam of the tabs by Mark Schnitzius and the unregistered solo tab with 
a few corrections, so props to them for being the main brain trust.


hey   been trying to meet you

[Guitar starts]
 
e|--2---X----------2---------2---X----------2--------------------|
B|--3---X-X--3-3-----3-------2---X-X--2-2-----2------------------|
G|--2h4---X--2-2h4-----4-----2h3---X--2-2h3-----3----------------|
D|---------------------------------------------------------------|
A|---------------------------------------------------------------|
E|---------------------------------------------------------------|
hey
must be a devil between us
or whores in my head
whores at my door
whores in my bed
but hey
where
have you
been
if you go i will surely die

      G       Em   Bm  G  Em  Bm .....
we're chained


[Lead Part on Chorus]

e|--10--------10---------10-----|
B|--13b-------13b--------13b----| played through
G|------------------------------|
D|------------------------------|
A|------------------------------|
E|------------------------------| 


[Solo]

e|--------------------------------------------------------------|
B|--------------------------------------------------------------|
G|--7-------------6---------------------------------------------|     X2
D|----9-7-----------7-------------------------------------------|
A|--------9-7h8h9-----9--7-7h8h9--7-5-----------7-5-------------|
E|------------------------------------7-5-5h6h7-----7-5-5h6h7---|

e|---------------------------10-10-7-----------------10-10-7------------|
B|-----------------------------------10-----5-5h6h7----------10-5-5h6h7-|
G|--7-----7-9-10B-----7-9-11--------------------------------------------|
D|----------------------------------------------------------------------|
A|----------------------------------------------------------------------|
E|----------------------------------------------------------------------|

e|--------------------------------------------------------------|
B|--6b--------6b--------6b-----6b6b6b6b6b6b6b6b-----------------|
G|--------------------------------------------------------------|
D|--------------------------------------------------------------|
A|--------------------------------------------------------------|
E|--------------------------------------------------------------|

uh
said the man to the lady
uh
sad the lady to the man she adored
and the whores like a choir
go uh all night
and mary ain't you tired of this
uh
is
the
sound
that the mother makes when the baby breaks
we're chained



************************************

| h  Hammer-on
| b  Bend
| x  Dead note

************************************

the chorus should be a 10 on e while bending 13 on b.

https://tabs.ultimate-guitar.com/p/pixies/hey_ver2_tab.htm