Tablature guitare : Pixies – Here Comes Your Man

pixies
here comes your man
album: doolittle
submitted by m. burgess


[Intro riff]

E---------------------------------------------|
B---------------------------------------------|
G---------------------------------------------|
D--------4--4--5---------------------0--2-----| x3
A--5--5-----------0------2--0--0--4--------5--|
E--------------------3------------------------|


[Verse 1]

E-------------------------------------------------------------|
B----------7--------------------14-----------------8----------|
G-----7-------7---7------14---------14--------9-------9---9---|
D--\7--(7)------7----\14----14---------14/--9---9-------9-----|
A-------------------------------------------------------------|
E-------------------------------------------------------------|

E-----------------------|
B-------------12--------|
G------12--------12-----|
D--\12----12--------12/-|
A-----------------------|
E-----------------------|

D                    A
  Outside there's a box car waiting
Em             G
  Outside the family stew
D             A
  Out by the fire breathing
Em           G
  Outside we wait til face turns blue

D             A
  I know the nervous walking
Em            G
  I know the dirty beard hangs
D             A
  Out by the box car waiting
Em                G
  Take me away to nowhere plains


[Bridge]

      Bm                       G         A        D
E-----------------------------------------------------|
B--12-12-12-12-12-12-12-12--12-(8x)--10-(8x)--15-(9x)-|
G--11-11-11-11-11-11-11-11--12--------9-------14------|
D-----------------------------------------------------|
A-----------------------------------------------------|
E-----------------------------------------------------|

Bm                    G               A
  There is a wait so long (so long so long)
                      D
  You'll never wait so long


[Chorus -- play with intro riff]

   G     A       
E---------------------------------------------|
B---------------------------------------------|
G---------------------------------------------|
D--------4--4--5---------------------0--2-----| x3
A--5--5-----------0------2--0--0--4--------5--|
E--------------------3------------------------|

G  A                D 
    Here comes your man
G  A                D 
    Here comes your man
G  A                D 
    Here comes your man


[Solo]

E----------------------------------------------------------------|
B----------------------------------------------------------------|
G--11--9-------------------------9---11--9----------11-11-9----9-|
D---------12--12--11--11--11h12-------------12--12----------12---|
A----------------------------------------------------------------|
E----------------------------------------------------------------|


[Verse 2]

E-------------------------------------------------------------|
B----------7--------------------14-----------------8----------|
G-----7-------7---7------14---------14--------9-------9---9---|
D--\7--(7)------7----\14----14---------14/--9---9-------9-----|
A-------------------------------------------------------------|
E-------------------------------------------------------------|

E-----------------------|
B-------------12--------|
G------12--------12-----|
D--\12----12--------12/-|
A-----------------------|
E-----------------------|

They shake on the boxcar moving[?]
They shake to the land that's falling down
Is a wind makes-a palms start blowing
A big big storm fall and break my crown


[Bridge]

      Bm                       G         A        D
E-----------------------------------------------------|
B--12-12-12-12-12-12-12-12--12-(8x)--10-(8x)--15-(9x)-|
G--11-11-11-11-11-11-11-11--12--------9-------14------|
D-----------------------------------------------------|
A-----------------------------------------------------|
E-----------------------------------------------------|


[Chorus -- play with intro riff]

   G     A       
E---------------------------------------------|
B---------------------------------------------|
G---------------------------------------------|
D--------4--4--5---------------------0--2-----| x3
A--5--5-----------0------2--0--0--4--------5--|
E--------------------3------------------------|

G  A                D 
    Here comes your man
G  A                D 
    Here comes your man
G  A                D 
    Here comes your man


[solo]

[Chords through solo:  D  A  Em  G ]

[note: what follows is an approximation for one guitar. There are about 
 three audible guitars on this solo]

E--------------------------------------------------------------|
B--15-15-15-17-15-17-15----------------------------------------|
G--14-14-14-14-14-14-14--14-14-16-14-16-14--12-12-14-12-14-12--|
D------------------------14-14-14-14-14-14--12-12-12-12-12-12--|
A--------------------------------------------------------------|
E--------------------------------------------------------------|

E------------------|    |--------------------------------------------|
B------------------|    |--------------------------------------------|
G--12--12-12-12-12-|x3  |--------------------------------------------|
D--14--14-14-14-14-|    |--12-12-12--12-12-12-12\14-14-14--14-14-14--|
A------------------|    |--------------------------------------------|
E------------------|    |--------------------------------------------|

E---------------------------------------------|
B---------------------------------------------|
G---------------------------------------------|
D--14/12-12-12--12-12-12-12\14-14-14--14-14---|
A---------------------------------------------|
E---------------------------------------------|


[Bridge]

      Bm                       G         A        D
E-----------------------------------------------------|
B--12-12-12-12-12-12-12-12--12-(8x)--10-(8x)--15-(9x)-|
G--11-11-11-11-11-11-11-11--12--------9-------14------|
D-----------------------------------------------------|
A-----------------------------------------------------|
E-----------------------------------------------------|


************************************

| x    Dead note
| (n)  Ghost note
| h    Hammer-on
| /    Slide up
| \    Slide down   

************************************

https://tabs.ultimate-guitar.com/p/pixies/here_comes_your_man_tab.htm