Tablature guitare : Pixies – Gigantic

-------------------------------------------------------------------------------
                             GIGANTIC - The Pixies
-------------------------------------------------------------------------------
Tabbed by: HarleyQuine
Email: harleyquine85@yahoo.com

Tuning: E, A, D, G, B, E,


[Pre-Chorus]

Feedback in the key of G during the bit 'Hey paul hey paul let's have a ball'.

[Chorus] Chords

The chords pretty much follow the bass. Play up to the X four times then the final chord 
onto the verse.
                                X
|---------------|---------------|---------------|---------------|
|---------------|---------------|---------------|---------------|
|-------7-9-9---|-4-4-4-5-7-7---|---------------|---------------|
|-5-5-5-7-9-9---|-4-4-4-5-7-7---|-5-------------|---------------|
|-5-5-5-5-7-7---|-2-2-2-3-5-5---|-5-------------|---------------|
|-3-3-3---------|---------------|-3-------------|---------------|


[Solo] (Played Twice) Thanks Prezofbfclub 🙂
|-----------------------------|
|-----------------------------|
|-0---0---1-------------------|
|-0--0--2-----1----2-----45---|
|-2---------2----3----5-------|
|-3---------------------------|


[Heavy] Chords

|---------------|---------------|
|---------------|---------------|
|---------------|9-9-9-9-7-7-7-7|
|5-5-5-5-5-5-5-5|9-9-9-9-7-7-7-7|
|5-5-5-5-5-5-5-5|7-7-7-7-5-5-5-5|
|3-3-3-3-3-3-3-3|---------------|


[Last Chorus]

CHORUS CHORDS THEN HEAVY CHORDS
|--------------------------------------------------|
|---------------|---------------|---------------|--|
|-4-4-4-5-7-7---|---------------|---------------|--|
|-4-4-4-5-7-7---|---------------|---------------|--|
|-2-2-2-3-5-5---|---------------|---------------|--|
|---------------|---------------|---------------|--|

The rest of the song is just the heavy chords repeated till the end.

hey hey th esolo should be Solo (Played twice)
|-----------------------------|
|-----------------------------|
|-0---0---1-------------------|
|-0--0--2-----1----2-----45---|
|-2---------2----3----5-------|
|-3---------------------------|

https://tabs.ultimate-guitar.com/p/pixies/gigantic_ver2_tab.htm