Tablature guitare : Pixies – Debaser

[Intro]

(Bass)

G|---------------------------------|
D|---------------------------------|
A|-1-1-1-1---------3-3-3-3---------|
E|---------1-1-1-1---------1-1-1-1-|


[Verse]

(Guitar)

e|-8--8--10-8--8--8--10-8--8--8--10-8--8--8--10-8--|
B|-8--8--8--8--8--8--8--8--8--8--8--8--8--8--8--8--|
G|-------------------------------------------------|
D|-------------------------------------------------|
A|-------------------------------------------------|
E|-------------------------------------------------|
                                                 
(Bass)
                                              
G|-------------------------------------------------|
D|-0--0--0--0--------------------------------------|
A|-------------0--0--0--0--1--1--1--1--3--3--3--3--|
E|-------------------------------------------------|

(Guitar)

e|-------------------------------------------------|
B|-------------------------------------------------|
G|-------------------------------------------------|
D|-3-------2--------------3--------2---------0-----|
A|------------------3------------------------------|
E|-------------------------------------------------|
                                                 
(Bass)      
                                    
G|-------------------------------------------------|
D|-------------------------------------0--0--0--0--|
A|-------------0--0--0--0--3--3--3--3--------------|
E|-1--1--1--1--------------------------------------|

(Guitar)

e|-------------------------------------------------|
B|-------------------------------------------------|
G|-------------------------3--2--3--0--------------|
D|-3-------2--------3------------------------------|
A|-------------------------------------------------|
E|-------------------------------------------------|
                                                 
(Bass) 
                                            
G|-------------------------------------------------|
D|-------------------------------------------------|
A|-1--1--1--1--3--3--3--3--------------------3--3--|
E|-------------------------3--3--3--3--------------|

[Repeat]

F   Bb        G       Bb         F
    Got me a movie I want you to know
Bb           G        Bb          F
Slicing up Eyeballs I want you to know
Bb        G        Bb          F
Girlie so groovy I want you to know
      Bb         G       Bb
Don't know about you but I am un 
F         Bb   G      Bb
   chien andalusia, I am un
F         Bb   G      Bb
   chien andalusia, I am un
F         Bb   G      Bb
   chien andalusia, I am un
F          Bb  G   
   chien andelusia


[Chorus]

      Bb
Wanna grow up to be
        Bb   F   C   F  Dm  Am  Bb  C
Be a Debaser          Debaser          Debaser 

[Back to intro riff]
[Repeat first verse, replace 'I want you to know' with 'ha ha ha ho']
[Chorus again, with same chords, slightly different form on words]
[Repeat ad lib with chord progression from verses, end on F]

https://tabs.ultimate-guitar.com/p/pixies/debaser_tab.htm