Tablature guitare : Passenger – Whispers

Author
Capo
2nd fret
Tabbed by Kwint & Troy (from Sir Jupiter).


Artist : Passenger
Song   : Whispers
Album  : Whispers [2014]


Capo II


INTRO :

   F    C                      F     C
e|---------------------------|--------------------------------------|
B|---------1---------1-----1-|----------1---------1-----1--------1--|
G|-2-0-----------0-----------|--2-0-----------0---------------0-----|
D|---------0h2-----2-------2-|----------0h2-----2-------2-------2---|
A|------3------3-------3-----|-------3------3-------3-------3-------|
E|-1-------------------------|--1-----------------------------------|

   F       C       G         Am                      F        |
e|-------------------------|---------------------------------||
B|---------------1-------0-|-----1---------1-----1-----------||
G|-0h2---0---0-------0-----|-----------0-------------2p0---0-||
D|-----3-------2-------0---|-----2-------2-------2-------3---||
A|---------3---------------|-0-------0-------0---------------||
E|-1---------------3-------|-------------------------1-------||

  C                      F
|-------------------------------|| last bar x2
|----1---------1-----1----------||
|----------0-------------2p0---0||
|----0h2-----2-------2-------3--||
|-3------3-------3--------------||
|------------------------1------||

This pattern goes on during the verse.


VERSE:
               F    C
Well, I've got open eyes,
       F     C
And an open door,
      F           C      G          Am
But I don't know what I'm searching for.
          F       C            F       C
I should know by now.

           F        C
See I've a big old heart,
        F        C
This I know for sure,
       F          C     G         Am
But I don't know what my love is for.
          F       C
I should know by now.


INTERLUDE:
F     |Am  G  |C     |F     |
F     |C      |F     |C     |    <- Fingerpicking pattern is the same as in the 
end of the intro (between double bars)

VERSE:
           F       C
Well, I'll wait in line,
         F         C
So I can wait some more,
        F        C             G         Am
'Till I can't remember what i came here for,
       F          C
But I can't leave now,

              F          C
Cause I've a light that shines,
       F       C
And a love so pure,
       F         C       G        Am
But I don't know what to use them for.
          F       C
I should know by now.


INTERLUDE:
F     |Am  G  |C     |F     |   x7
F

CHORUS:
        F
Well I spent my money,
   G
I lost my friends,
    C                 F
I broke my mobile phone
             G           
3AM and I'm drunk as hell,
         C              F
And I'm dancing on my own
                 G
Taxi-cabs ain't stopping,
       C                 F         F
And I dont know my way home,

          F               G           C                F   
Well it's hard to find a reason, when all you have is doubts,
                    G                 C                   F
Hard to see inside yourself when you can't see your way out,
                 G               C                   F
Hard to find an answer when the question won't come out,

F                      G                C                                F
Everyone's filling me up with noise, I don't know what they're talking about (x3),
        (F)             (G)          (C)             (F)
You see all I need is a whisper in a world that only shouts.



OUTRO PICKING:

F  |C     F |C     |F   C   |G  A5  (x02xxx) 


If you have any suggestions/corrections, please let us know in the comments!

https://tabs.ultimate-guitar.com/p/passenger/whispers_ver2_crd.htm