Tablature guitare : My Chemical Romance – Teenagers

TRACK NO. 11 – TEENAGERS

UPDATES:
8/28/07 - Updated!

Ins.:
        Gtr 1 – Frank Iero
        Gtr 2 – Ray Toro

        
[Verse 1]

Gtr 2 (figure the PM’s yourself ^^)
e|---------------0---------------0--|--------------------------------0--|
B|---------------0---------------0--|--------------------------------0--|
G|----------------------------------|-----------------------------------|
D|----------------------------------|-------------------4-4-6-4--2/4----|
A|--2-2-4-2---------2-2-4-2---------|--2---4---5---4----2-2-4-2---------|
E|--0-0-0-0--2-4----0-0-0-0--2-4----|--0-0-0-0-0-0-0-0--2-2-4-2---------|

(continued)

e|---------------0---------------0--|-----------------------------------0--|
B|---------------0---------------0--|-----------------------------------0--|
G|----------------------------------|--------------------------------------|
D|----------------------------------|--------------------------------------|
A|--7-7-7-7--7------2-2-4-2---------|--9-9-11-9-12-9-11-9--2-2-4-2---------|
E|--5-5-4-5--4/5----0-0-0-0--2-4----|--7-7--7-7--7-7--7-7--0-0-0-0--2-4----|

Then, (Gtr 2 keeps playing ^^^ riff)
Gtr 1
e|----------------------------------|-------------------------------------|
B|----------------------------------|-------------------------------------|
G|----------------------------------|-------------------------------------|
D|----------------------------------|----------6-6-6-6--4-4-6-4-----------|
A|--7-7-7-7---------7-7-7-7---------|--7-7-7-7----------------------------|
E|----------------------------------|-------------------------------------|

(continued)

e|----------------------------------|--------------------------------------|
B|----------------------------------|--------------------------------------|
G|----------------------------------|--------------------------------------|
D|--7-7-7-7--7-6-4--4-4-6-----------|----------4-6-4-----------------------|
A|------------------------7--7-7----|--6-6-7-7-------7--7------------------|
E|----------------------------------|--------------------------------------|

Then, just before the chorus:
Gtr 2
E|---------------------|
B|---------------------|
G|--11/13-13-11-9\7-9--|
D|---------------------|
A|---------------------|
E|---------------------|


[Chorus]

Gtr 1 (Fast strumming)
e|----------------------------------|--------------------------------------------|
B|----------------------------------|--------------------------------------------|
G|--9-9-8-9--4-6-8--9-9-8-9--4-6-8--|--9-9-9-9-13-13-13-13-11-11-13-11-11-11-11--|
D|--x-x-x-x--x-x-x--x-x-x-x--x-x-x--|--x-x-x-x--x--x--x--x--x--x--x--x--x--x--x--|
A|--7-7-6-7--2-4-6--7-7-6-7--2-4-6--|--7-7-7-7-11-11-11-11--9--9-11--9--9--9--9--|
E|----------------------------------|--------------------------------------------|
Gtr 2
e|---------------0---------------0--|--------------------------------0--|
B|---------------0---------------0--|--------------------------------0--|
G|----------------------------------|-----------------------------------|
D|----------------------------------|-------------------4-4-6-4--2/4----|
A|--2-2-4-2---------2-2-4-2---------|--2-2-4-2-5-2-4-2--2-2-4-2---------|
E|--0-0-0-0--2-4----0-0-0-0--2-4----|--0-0-0-0-0-0-0-0--2-2-4-2---------|

Gtr 1
e|----------------------------------|----------------------|-----|
B|----------------------------------|----------------------|-----|
G|--14141414-141413-11-13-9--9-9-9--|--8-8-9-9-11-13-11-9--|--9--|
D|---x-x-x-x--x-x-x--x--x-x--x-x-x--|--x-x-x-x--x--x--x-x--|--x--|
A|--12121212-121211--9-11-7--7-7-7--|--6-6-7-7--9-11--9-7--|--7--|
E|----------------------------------|----------------------|-----|
Gtr 2
e|---------------0---------------0--|----------------------|-----|
B|---------------0---------------0--|----------------------|-----|
G|----------------------------------|----------------------|-----|
D|----------------------------------|----------------------|--2--|
A|--7-7-7-7--7------2-2-4-2---------|--9-9-11-9-12-9-11-9--|--2--|
E|--5-5-4-5--4/5----0-0-0-0--2-4----|--7-7--7-7--7-7--7-7--|--0--|

(Repeat VERSE and CHORUS)


[Verse 2]

Gtr 2 (figure the PM’s yourself ^^)
e|---------------0---------------0--|--------------------------------0--|
B|---------------0---------------0--|--------------------------------0--|
G|----------------------------------|-----------------------------------|
D|----------------------------------|-------------------4-4-6-4--2/4----|
A|--2-2-4-2---------2-2-4-2---------|--2---4---5---4----2-2-4-2---------|
E|--0-0-0-0--2-4----0-0-0-0--2-4----|--0-0-0-0-0-0-0-0--2-2-4-2---------|

(continued)

e|---------------0---------------0--|-----------------------------------0--|
B|---------------0---------------0--|-----------------------------------0--|
G|----------------------------------|--------------------------------------|
D|----------------------------------|--------------------------------------|
A|--7-7-7-7--7------2-2-4-2---------|--9-9-11-9-12-9-11-9--2-2-4-2---------|
E|--5-5-4-5--4/5----0-0-0-0--2-4----|--7-7--7-7--7-7--7-7--0-0-0-0--2-4----|

Then, (Gtr 2 keeps playing ^^^ riff)
Gtr 1
e|----------------------------------|-------------------------------------|
B|----------------------------------|-------------------------------------|
G|----------------------------------|-------------------------------------|
D|----------------------------------|----------6-6-6-6--4-4-6-4-----------|
A|--7-7-7-7---------7-7-7-7---------|--7-7-7-7----------------------------|
E|----------------------------------|-------------------------------------|

(continued)

e|----------------------------------|--------------------------------------|
B|----------------------------------|--------------------------------------|
G|----------------------------------|--------------------------------------|
D|--7-7-7-7--7-6-4--4-4-6-----------|----------4-6-4-----------------------|
A|------------------------7--7-7----|--6-6-7-7-------7--7------------------|
E|----------------------------------|--------------------------------------|

Then, just before the chorus:
Gtr 2
E|---------------------|
B|---------------------|
G|--11/13-13-11-9\7-9--|
D|---------------------|
A|---------------------|
E|---------------------|


[Chorus]

Gtr 1 (Fast strumming)
e|----------------------------------|--------------------------------------------|
B|----------------------------------|--------------------------------------------|
G|--9-9-8-9--4-6-8--9-9-8-9--4-6-8--|--9-9-9-9-13-13-13-13-11-11-13-11-11-11-11--|
D|--x-x-x-x--x-x-x--x-x-x-x--x-x-x--|--x-x-x-x--x--x--x--x--x--x--x--x--x--x--x--|
A|--7-7-6-7--2-4-6--7-7-6-7--2-4-6--|--7-7-7-7-11-11-11-11--9--9-11--9--9--9--9--|
E|----------------------------------|--------------------------------------------|
Gtr 2
e|---------------0---------------0--|--------------------------------0--|
B|---------------0---------------0--|--------------------------------0--|
G|----------------------------------|-----------------------------------|
D|----------------------------------|-------------------4-4-6-4--2/4----|
A|--2-2-4-2---------2-2-4-2---------|--2-2-4-2-5-2-4-2--2-2-4-2---------|
E|--0-0-0-0--2-4----0-0-0-0--2-4----|--0-0-0-0-0-0-0-0--2-2-4-2---------|

Gtr 1
e|----------------------------------|----------------------|-----|
B|----------------------------------|----------------------|-----|
G|--14141414-141413-11-13-9--9-9-9--|--8-8-9-9-11-13-11-9--|--9--|
D|---x-x-x-x--x-x-x--x--x-x--x-x-x--|--x-x-x-x--x--x--x-x--|--x--|
A|--12121212-121211--9-11-7--7-7-7--|--6-6-7-7--9-11--9-7--|--7--|
E|----------------------------------|----------------------|-----|
Gtr 2
e|---------------0---------------0--|----------------------|-----|
B|---------------0---------------0--|----------------------|-----|
G|----------------------------------|----------------------|-----|
D|----------------------------------|----------------------|--2--|
A|--7-7-7-7--7------2-2-4-2---------|--9-9-11-9-12-9-11-9--|--2--|
E|--5-5-4-5--4/5----0-0-0-0--2-4----|--7-7--7-7--7-7--7-7--|--0--|


[Solo]

Gtr 1
e|-----------------------------------|-----------------------------------|
B|-----------------------------------|-----------------------------------|
G|-----------------------------------|-----------------------------------|
D|--7-7-7-7-7-7-7-7-7-7-7-7-7-7-7-7--|--2-2-2-2-2-2-2-2-2-2-2-2-2-2-2-2--|
A|--7-7-7-7-7-7-7-7-7-7-7-7-7-7-7-7--|--2-2-2-2-2-2-2-2-2-2-2-2-2-2-2-2--|
E|--5-5-5-5-5-5-5-5-5-5-5-5-5-5-5-5--|--0-0-0-0-0-0-0-0-0-0-0-0-0-0-0-0--|

(continued)

e|-----------------------------------|-----------------------------------|
B|-----------------------------------|-----------------------------------|
G|-----------------------------------|-----------------------------------|
D|--7-7-7-7-7-7-7-7-7-7-7-7-7-7-7-7--|--9-9-9-9-9-9-9-9-9-9-9-9-9-9-9-9--|
A|--7-7-7-7-7-7-7-7-7-7-7-7-7-7-7-7--|--9-9-9-9-9-9-9-9-9-9-9-9-9-9-9-9--|
E|--5-5-5-5-5-5-5-5-5-5-5-5-5-5-5-5--|--7-7-7-7-7-7-7-7-7-7-7-7-7-7-7-7--|

Gtr 2 (thanks to sloppyjoe24)
e|-----------------------------------12--|-----------12--|continued below
B|------------------------7-7h9-7h9--12--|-----------12--|
G|--9p7h9p7-9--7--5h6--9--7-7h9-7h9------|--14p12-13-----|
D|----------9--7--7----9-----------------|---------------|
A|---------------------------------------|---------------|
E|---------------------------------------|---------------|

(continued)

e|--------------------------------------------------|
B|--15^r^r-15-12h15p12-10h12p10-8--10^(12)rp8-10p8--|
G|--------------------------------------------------|
D|--------------------------------------------------|
A|--------------------------------------------------|
E|--------------------------------------------------|

(continued)

e|---------------------------------|
B|---------------------------------|
G|--9--7p5-6--9---9-9-9-7p5-6--9---|
D|--9---------9---9-9-9--------9---|
A|---------------------------------|
E|---------------------------------|

(continued)

e|-----------------------------------------------------|
B|-----------------------------------------------------|
G|--9^(11)~-9^-9^-9^-9^-9^-9^-9^-9^-9^-9^-9^-9^-9rvvv--|
D|-----------------------------------------------------|
A|-----------------------------------------------------|
E|-----------------------------------------------------|


Repeat CHORUS 2x

[Chorus]

Gtr 1 (Fast strumming)
e|----------------------------------|--------------------------------------------|
B|----------------------------------|--------------------------------------------|
G|--9-9-8-9--4-6-8--9-9-8-9--4-6-8--|--9-9-9-9-13-13-13-13-11-11-13-11-11-11-11--|
D|--x-x-x-x--x-x-x--x-x-x-x--x-x-x--|--x-x-x-x--x--x--x--x--x--x--x--x--x--x--x--|
A|--7-7-6-7--2-4-6--7-7-6-7--2-4-6--|--7-7-7-7-11-11-11-11--9--9-11--9--9--9--9--|
E|----------------------------------|--------------------------------------------|
Gtr 2
e|---------------0---------------0--|--------------------------------0--|
B|---------------0---------------0--|--------------------------------0--|
G|----------------------------------|-----------------------------------|
D|----------------------------------|-------------------4-4-6-4--2/4----|
A|--2-2-4-2---------2-2-4-2---------|--2-2-4-2-5-2-4-2--2-2-4-2---------|
E|--0-0-0-0--2-4----0-0-0-0--2-4----|--0-0-0-0-0-0-0-0--2-2-4-2---------|

Gtr 1
e|----------------------------------|----------------------|-----|
B|----------------------------------|----------------------|-----|
G|--14141414-141413-11-13-9--9-9-9--|--8-8-9-9-11-13-11-9--|--9--|
D|---x-x-x-x--x-x-x--x--x-x--x-x-x--|--x-x-x-x--x--x--x-x--|--x--|
A|--12121212-121211--9-11-7--7-7-7--|--6-6-7-7--9-11--9-7--|--7--|
E|----------------------------------|----------------------|-----|
Gtr 2
e|---------------0---------------0--|----------------------|-----|
B|---------------0---------------0--|----------------------|-----|
G|----------------------------------|----------------------|-----|
D|----------------------------------|----------------------|--2--|
A|--7-7-7-7--7------2-2-4-2---------|--9-9-11-9-12-9-11-9--|--2--|
E|--5-5-4-5--4/5----0-0-0-0--2-4----|--7-7--7-7--7-7--7-7--|--0--|



Gtr 1 (Fast strumming)
e|----------------------------------|--------------------------------------------|
B|----------------------------------|--------------------------------------------|
G|--9-9-8-9--4-6-8--9-9-8-9--4-6-8--|--9-9-9-9-13-13-13-13-11-11-13-11-11-11-11--|
D|--x-x-x-x--x-x-x--x-x-x-x--x-x-x--|--x-x-x-x--x--x--x--x--x--x--x--x--x--x--x--|
A|--7-7-6-7--2-4-6--7-7-6-7--2-4-6--|--7-7-7-7-11-11-11-11--9--9-11--9--9--9--9--|
E|----------------------------------|--------------------------------------------|
Gtr 2
e|---------------0---------------0--|--------------------------------0--|
B|---------------0---------------0--|--------------------------------0--|
G|----------------------------------|-----------------------------------|
D|----------------------------------|-------------------4-4-6-4--2/4----|
A|--2-2-4-2---------2-2-4-2---------|--2-2-4-2-5-2-4-2--2-2-4-2---------|
E|--0-0-0-0--2-4----0-0-0-0--2-4----|--0-0-0-0-0-0-0-0--2-2-4-2---------|

Gtr 1
e|----------------------------------|----------------------|-----|
B|----------------------------------|----------------------|-----|
G|--14141414-141413-11-13-9--9-9-9--|--8-8-9-9-11-13-11-9--|--9--|
D|---x-x-x-x--x-x-x--x--x-x--x-x-x--|--x-x-x-x--x--x--x-x--|--x--|
A|--12121212-121211--9-11-7--7-7-7--|--6-6-7-7--9-11--9-7--|--7--|
E|----------------------------------|----------------------|-----|
Gtr 2
e|---------------0---------------0--|----------------------|-----|
B|---------------0---------------0--|----------------------|-----|
G|----------------------------------|----------------------|-----|
D|----------------------------------|----------------------|--2--|
A|--7-7-7-7--7------2-2-4-2---------|--9-9-11-9-12-9-11-9--|--2--|
E|--5-5-4-5--4/5----0-0-0-0--2-4----|--7-7--7-7--7-7--7-7--|--0--|


[Outro]

Gtr 2’s ending:
e|-------------------|
B|-------------------|
G|--9s11-11p9p7--9~--|
D|-------------------|
A|-------------------|
E|-------------------|



***********************************
| /   Slide up
| \   Slide down
| h   Hammer-on
| p   Pull-off
| v   Vibrato
| +   Harmonic
| x   Dead note
| ^   Bend
| r   Release
***********************************

the second part of the chorus for guitar 1 is a bit off, i think its closer like this

Gtr 1
e|------------------------------------|----------------------|-----|
B|------------------------------------|----------------------|-----|
G|--14141414-141311--9-9-13-7--9-9-9--|--8-8-9-9-11-13-11-9--|--9--|
D|---x-x-x-x--x-x-x--x-x--x-x--x-x-x--|--x-x-x-x--x--x--x-x--|--x--|
A|--12121212-1211-9--7-7-11-7--7-7-7--|--6-6-7-7--9-11--9-7--|--7--|
E|------------------------------------|----------------------|-----|

https://tabs.ultimate-guitar.com/m/my_chemical_romance/teenagers_tab.htm