Tablature guitare : My Chemical Romance – Interlude

Intro

e |-----------2----------------2----------------2----------------2------|
B |-------2------2---------2------2---------2------2---------2------2---|
G |---------------------------------------------------------------------|
D |-------------------------------------0----------------0--------------|
A |---------------------------------------------------------------------|
E |---2----------------2------------------------------------------------|
      T                T                                                  
e |-----------2----------------2----------------2----------------2------|
B |-------2------2---------2------2---------2------2---------2------2---|
G |---------------------------------------------------------------------|
D |---------------------------------------------------------------------|
A |---4----------------4----------------0-------------------------------|
E |------------------------------------------------------4--------------|

Verse 1

e |-----------2----------------2----------------2----------------2------|
B |-------2------2---------2------2---------2------2---------2------2---|
G |---------------------------------------------------------------------|
D |-------------------------------------0----------------0--------------|
A |---------------------------------------------------------------------|
E |---2----------------2------------------------------------------------|
      T                T    
                                                 
e |-----------2----------------2---------------------------------2------|
B |-------2------2---------2------2---------0h2---2----------2------2---|
G |---------------------------------------------------------------------|
D |---------------------------------------------------------------------|
A |---4----------------4----------------0-------------------------------|
E |------------------------------------------------------4--------------|

Verse 2

e |---------------------------------------------------------------------|
B |-----------2----------------2----------------0----------------0------|
G |-------2-----2----------2-----2----------1------1---------1------1---|
D |---------------------------------------------------------------------|
A |---0----------------0------------------------------------------------|
E |-------------------------------------0----------------0--------------|
                                     
e |---------------------------------------------------------------------|
B |-----------2----------------2----------------2----------------2------|
G |-------2-----2----------2-----2----------4-----4----------4-----4----|
D |---------------------------------------------------------------------|
A |-------------------------------------4----------------4--------------|
E |---2----------------2------------------------------------------------|
                             
Verse 3

e |---------------------------------------------------------------------|
B |-----------2----------------2----------------0----------------0------|
G |-------2-----2----------2-----2----------1------1---------1------1---|
D |---------------------------------------------------------------------|
A |---0----------------0------------------------------------------------|
E |-------------------------------------0----------------0--------------|
                                     
e |---------------------------------------------------------------------|
B |-----------2----------------2----------------2--------------2---2----|
G |-------2-----2----------2-----2----------4-----4----------4---4---4--|
D |---------------------------------------------------------------------|
A |-------------------------------------4----------------4--------------|
E |---2----------------2------------------------------------------------|

End Chord

e |--0--|--(2)--|
B |--2--|-------|
G |--4--|-------|
D |--3--|-------|
A |--4--|-------|
e |--x--|-------|

 ________________________________________________________
|Lyrics:                                                 |
|Verse 1:Since we talked all night.                      |
|Verse 2:Come angels of unknown.                         |
|Verse 3:Come angels of unknown.                         |
|________________________________________________________|

If you're confused with these tabs, just listen to the song. It's really simple to figure out.
I hope I've helped. =]
Have a good day and listen to MCR.

https://tabs.ultimate-guitar.com/m/my_chemical_romance/interlude_ver3_tab.htm