Tablature guitare : My Chemical Romance – Helena

My Chemical Romance - Helena
Standard Tuning (EADGBe)
Robert Lydecker

The other tab for this song left out the lead for the chorus and it pissed
me off how it got good ratings.  So here is the correct version of Helena.

[Intro]

e|-------------------------------------------------------------------------|
B|-------------------------------------------------------------------------|
G|-------------------------------------------------------------------------|
D|14-x8-11-x8--13-x8--9-x4--11-x2--13-x2--14-x8--11-x8--9-x4--11-x4--13-x8-|
A|-------------------------------------------------------------------------|
E|-------------------------------------------------------------------------|
  .     .      .      .     .      .      .      .      .     .      .


[Verse]

 Guitar 1 + 2
e|-----------------------------------------------------------------------------------------------------|
B|-----------------------------------------------------------------------------------------------------|
G|---6-6-6-6-6-6-6-6-6--6-6-6-6-6-6-6-6-6--------------------------4-4-4-4-4-4-4-4-4-------------------|
D|---6-6-6-6-6-6-6-6-6--6-6-6-6-6-6-6-6-6----2-2-2--2-2-2-2-2-2----4-4-4-4-4-4-4-4-4-------------------|
A|---4-4-4-4-4-4-4-4-4--4-4-4-4-4-4-4-4-4----2-2-2--2-2-2-2-2-2----2-2-2-2-2-2-2-2-2-------------------|
E|-------------------------------------------0-0-0--0-0-0-0-0-0----------------------------------------|

e|----------------------------------------------------------------------------------------------------|
B|----------------------------------------------------------------------------------------------------|
G|---------------------------------------6-6-6-6-6-6-6-6-6---4-4-4-4-4-4-4-4-4------------------------|
D|---------------------------------------6-6-6-6-6-6-6-6-6---4-4-4-4-4-4-4-4-4------------------------|
A|-7-7-7-7-7-7-7-7-7--7-7-7-7-7-7-7-7----4-4-4-4-4-4-4-4-4---2-2-2-2-2-2-2-2-2------------------------|
E|-4-4-4-4-4-4-4-4-4--5-5-5-5-5-5-5-5-----------------------------------------------------------------|


[Pre-Chorus]

 Guitar 1
e|------------------------------------------------------------------------------------|
B|------------------------------------------------------------------------------------|
G|-----------------------------------6-6-6-6-6-6-6-6--4-4-4-4-4-4-4-4-----------------|
D|-6-6-6-6-6-6-6-6--7-7-7-7-7-7-7-7--6-6-6-6-6-6-6-6--4-4-4-4-4-4-4-4-----------------|
A|-6-6-6-6-6-6-6-6--7-7-7-7-7-7-7-7--4-4-4-4-4-4-4-4--2-2-2-2-2-2-2-2-----------------|
E|-4-4-4-4-4-4-4-4--5-5-5-5-5-5-5-5---------------------------------------------------|

e|------------------------------------------------------------------------------------|
B|------------------------------------------------------------------------------------|
G|-----------------------------------6-6-6-6-6-6-6-6--8-8-8-8-8-8-8-8-----------------|
D|-6-6-6-6-6-6-6-6--7-7-7-7-7-7-7-7--6-6-6-6-6-6-6-6--8-8-8-8-8-8-8-8-----------------|
A|-6-6-6-6-6-6-6-6--7-7-7-7-7-7-7-7--4-4-4-4-4-4-4-4--6-6-6-6-6-6-6-6-----------------|
E|-4-4-4-4-4-4-4-4--5-5-5-5-5-5-5-5---------------------------------------------------|


[Pre-Chorus]

 Guitar 2
e|-------------------------------------------------------------------------|
B|-------------------------------------------------------------------------|
G|-8-8-8-8-8--11-11-11-11-11--9-9-9-9-9--11-11-11-11-11--------------------|
D|-x-x-x-x-x--x--x--x--x--x---x-x-x-x-x--x--x--x--x--x---------------------|
A|-6-6-6-6-6--9--9--9--9--9---7-7-7-7-7--9--9--9--9--9---------------------|
E|-------------------------------------------------------------------------|

e|-------------------------------------------------------------------------|
B|-------------------------------------------------------------------------|
G|-8-8-8-8-8--11-11-11-11-11--9-9-9-9-9--8-8-8-8-8-------------------------|
D|-x-x-x-x-x--x--x--x--x--x---x-x-x-x-x--x-x-x-x-x-------------------------|
A|-6-6-6-6-6--9--9--9--9--9---7-7-7-7-7--6-6-6-6-6-------------------------|
E|-------------------------------------------------------------------------|

The last time play this instead:
e|-------------------------------------------------------------------------|
B|-------------------------------------------------------------------------|
G|-8-8-8-8-8--11-11-11-11-11--9-9-9-9-9-9-9-9------------------------------|
D|-x-x-x-x-x--x--x--x--x--x---x-x-9-9-9-9-9-9------------------------------|
A|-6-6-6-6-6--9--9--9--9--9---7-7-7-7-7-7-7-7------------------------------|
E|-------------------------------------------------------------------------|


[Chorus]

Guitar 1
e|----------------------------------------------------------------------------------|
B|----------------------------------------------------------------------------------|
G|--9-9-9-9-9-9-9-9-9-9-------------------------------------------------------------|
D|--9-9-9-9-9-9-9-9-9-9--9-9-9-9-9-------------------11-11-11-11-11-11-11-11-11-11--|
A|--7-7-7-7-7-7-7-7-7-7--9-9-9-9-9--9-9-9-9-9-9-9-9--11-11-11-11-11-11-11-11-11-11--|
E|-----------------------7-7-7-7-7--8-8-8-8-8-8-8-8--9--9--9--9--9--9--9--9--9--9---|

e|--------------------------|
B|--------------------------|
G|-----------------------9--|
D|-----------------------9--|
A|-9-9-9-9-9-9-9-9-9-9-9-7--|
E|-8-8-8-8-8-8-8-8-8-8-8----|

Guitar 2
e|--------------------------------------------------------------------------------|
B|--------------------------------------------------------------------------------|
G|-9-9-9-9-9-9/1111/13-13-11-11-11-11-11-11-14/13-13-16/14-/-13-13-13-13-13-13-13-|
D|-9-x-x-x-x-x-x-x--x--x--x--x--x--x--x--x--x--x--x--x--x----x--x--x--x--x--x--x--|
A|-7-7-7-7-7-7/9-9/-11-11-9--9--9--9--9--9--12/11-11-14/12-/-11-11-11-11-11-11-11-|
E|--------------------------------------------------------------------------------|

e|--------------------------------------------------------------------|
B|--------------------------------------------------------------------|
G|-14-13-13-14-13-13-11-11-11-11-11-11-11--8-8-8-8-8-8---9------------|
D|-x--x--x--x--x--x--x--x--x--x--x--x--x---x-x-x-x-x-x---9------------|
A|-12-11-11-12-11-11-9--9--9--9--9--9--9---6-6-6-6-6-6---7------------|
E|--------------------------------------------------------------------|


[Post-Chorus]

 (Clean)
e|----------------|
B|---9-------9----|
G|-----9-------9--|
D|----------------|
A|-7------7-------|
E|----------------|

Then Play:


[Verse]

Pre Chorus
Chorus X2

The ending is different for the lead in the second chorus.
e|-------------------------------------------------------------------------|
B|-------------------------------------------------------------------------|
G|-14-13-13-14-13-13---11-11-11-11-11-11-11--13-13-13-13--11-11-11-11----9-|
D|-x--x--x--x--x--x----x--x--x--x--x--x--x---x--x--x--x---x--x--x--x-----9-|
A|-12-11-11-12-11-11---9--9--9--9--9--9--9---11-11-11-11--9--9--9--9-----7-|
E|-------------------------------------------------------------------------|


[Bridge]

Guitar 1
e|--------------------------------------------------------------------------------------------------------|
B|--------------------------------------------------------------------------------------------------------|
G|--------------------------------------------------------------------------------------------------------|
D|--------------------------------------------------------------------------------------------------------|
A|-7-7-7-7-7-7-7-7-7-7-7-7--9-9-9-9-9-9-9-9-9-9-9-9--7-7-7-7-7-7-7-7-7-7-7-7-6-6-6-6-6-6-6-6-6-6-6--------|
E|--------------------------------------------------------------------------------------------------------|
   . . . . . . . . . . . .  . . . . . . . . . . . .  . . . . . . . . . . . . . . . . . . .....

e|-----------------------------------------------------------------------------------------------------------|
B|-----------------------------------------------------------------------------------------------------------|
G|-----------------------------------------------------------------------------------------------------------|
D|-----------------------------------------------------------------------------------------------------------|
A|-7-7-7-7-7-7-7-7-7-7-7-7--9-9-9-9-9-9-9-9-9-9-9-9--7-7-7-7-7-7-7-7-7-7-7-7--6-6-6-6-7-7-7-7-9-9-9-9-11-x-4-|
E|-----------------------------------------------------------------------------------------------------------|
   . . . . . . . . . . . .  . . . . . . . . . . . .  . . . . . . . . . . . .  . . . . . ........

e|-----------------------------------------------------------|
B|-----------------------------------------------------------|
G|-----------------------------------------------------------|
D|-----------------------------------------------------------|
A|-14-x8--11-x8--14-x8--11-x8--9-x6-7-x9--9-x10--7-x7--6-x9--|
E|-----------------------------------------------------------|
   .      .      .      .      .    .     .      .     .

Guitar 2 (Feedback)
e|------14b---------|
B|------------------|
G|------------------|
D|------------------|
A|------------------|
E|------------------|

Right before the last chorus
e|-------------------------------------------------------------|
B|-------------------------------------------------------------|
G|-8/9-8/9--11/9-9--9------------------------------------------|
D|-x-x-x-x--x--x-x--9------------------------------------------|
A|-6/7-6/7--9-/7-7--7------------------------------------------|
E|-------------------------------------------------------------|


[Chorus]

X2 The lead changes again
e|------------------------------------------------------------------------------|
B|------------------------------------------------------------------------------|
G|-9-9-9-9-9-9-/11-11/13-13-11-11-11-11-11-11-14/13-13-16/14/13-16-16-16-16-----|
D|-9-x-x-x-x-x--x--x--x--x--x--x--x--x--x--x--x--x--x--x--x--x--x--x--x--x------|
A|-7-7-7-7-7-7-/9--9-/11-11-9--9--9--9--9--9--12/11-11-14/12/11-14-14-14-14-----|
E|------------------------------------------------------------------------------|

e|-----------------------------------------------------------------------------------------|
B|-----------------------------------------------------------------------------------------|
G|-14-14-14-14-13-13-13-13/14-13-13--11-11-11-11-11-11-11--13-13-13-13--11-11-11-11----9---|
D|-x--x--x--x--x--x--x--x--x--x--x---x--x--x--x--x--x--x---x--x--x--x---x--x--x--x-----9---|
A|-12-12-12-12-11-11-11-11/12-11-11--9--9--9--9--9--9--9---11-11-11-11--9--9--9--9-----7---|
E|-----------------------------------------------------------------------------------------|


[Outro]

e|---------------------------------------------------------------------------|
B|---------------------------------------------------------------------------|
G|---------------------------------------------------------------------------|
D|------------------------------------------------------------------------7--|
A|-7-7-7-7-7-7-7-7-7-7-7-7-7-7-7-7--9-9-9-9-9-9-9-9-9--6-6-6-6-6-6-6------7--|
E|------------------------------------------------------------------------5--|
   . . . . . . . . . . . . . . . .  . . . . . . . . .  . . . . . . .

Another great band SELLS OUT.



************************************

| x  Dead note
| b  Bend
| /  Slide up
| /  Palm mute

************************************

https://tabs.ultimate-guitar.com/m/my_chemical_romance/helena_ver2_tab.htm