Tablature guitare : James Arthur – Say You Won’t Let Go

---------------------------------------------------------------------------------
           VIDEO LESSON - https://www.youtube.com/watch?v=f8kdCVACuYo
---------------------------------------------------------------------------------

--------------------------------------------
           CAPO ON THE 3RD FRET
--------------------------------------------

[Main Riff - Played basically through the whole song]

   G                  D/F#               Em7    Em          C
e|------------------|------------------|------------------|-------------------|
B|-----3--0---------|-----3--0---------|-----3--0---------|-----1--1-----1p0--|
G|-----0--0-----0---|-----2--2-----2---|-----0--0-----0---|-----0--0----------|
D|------------------|--------0---0---0-|------------------|-------------------|
A|------------------|------------------|------------------|-3------3---3------|
E|-3------3---3---3-|-2----------------|-0------0---0---0-|-------------------|

https://tabs.ultimate-guitar.com/j/james_arthur/say_you_wont_let_go_ver2_tab.htm