Tablature guitare : Imagine Dragons – Radioactive

Capo on 2nd fret (optional depending on what key you want to be in)
Standard Tuning
Please comment and rate 😀 


[Intro]

  Am              C              G              D
e|---------0--------------0--------------3--------------2-----|
B|--1--------------1--------------3--------------3------------|
G|--2---2-----2----0---0-----0----0---0-----0----2---2-----2--|   x2
D|------------------------------------------------------------|
A|--0--------------3--------------2--------------0------------|
E|------------------------------------------------------------|


[Verse]

  Am              C              G              D
e|---------0--------------0--------------3--------------2-----|
B|--1--------------1--------------3--------------3------------|
G|--2---2-----2----0---0-----0----0---0-----0----2---2-----2--|   x4
D|------------------------------------------------------------|
A|--0--------------3--------------2--------------0------------|
E|------------------------------------------------------------|


[Chorus]

  Am              C              G              D
e|---------0--------------0--------------3--------------2-----|
B|--1--------------1--------------3--------------3------------|
G|--2---2-----2----0---0-----0----0---0-----0----2---2-----2--|   x4
D|------------------------------------------------------------|
A|--0--------------3--------------2--------------0------------|
E|------------------------------------------------------------|


[Verse]

(Strum Lightly)

Am           C            G
I raise my flags, don my clothes
          D                    Am
It's a revolution, I suppose
              C                  G    D
We're painted red to fit right in
Am          C            G                 D
I'm breaking in, shaping up, then checking out on the prison bus
Am        C              G    
This is it, the apocalypse
    D (One Strum)
Whoa


[Chorus]

(Strum)

            Am             C
I'm waking up, I feel it in my bones
G                  D
Enough to make my systems grow
Am                     C
Welcome to the new age, to the new age
G                      D
Welcome to the new age, to the new age
Am   C     G                D
Whoa, whoa, I'm radioactive, radioactive
Am   C     G                D
Whoa, whoa, I'm radioactive, radioactive


[Bridge]

(One Strum Each)

Am          C   G           D 
All systems go, sun hasn't died
Am          C     G             D
Deep in my bones, straight from inside


[Chorus]

  Am              C              G              D
e|---------0--------------0--------------3--------------2-----|
B|--1--------------1--------------3--------------3------------|
G|--2---2-----2----0---0-----0----0---0-----0----2---2-----2--|   x2
D|------------------------------------------------------------|
A|--0--------------3--------------2--------------0------------|
E|------------------------------------------------------------|

Am   C     G                D
Whoa, whoa, I'm radioactive, radioactive
Am   C     G                D
Whoa, whoa, I'm radioactive, radioactive

END

Thanks 🙂

https://tabs.ultimate-guitar.com/i/imagine_dragons/radioactive_acoustic_tab.htm