Tablature guitare : Imagine Dragons – Its Time

[Intro]

e|---12-14-12---12----14-12--|---12-14-12----12---14-12--|
B|-15--------15---15-------- |-15----------15--15--------|
G|---------------------------|---------------------------|
D|---------------------------|---------------------------|
A|---------------------------|---------------------------|
E|---------------------------|---------------------------|

e|---12-14-12----12----14-12-|---12-14-12---12---17-14---|
B|-15----------15---15------ |-15--------15---15---------|
G|---------------------------|---------------------------|
D|---------------------------|---------------------------|
A|---------------------------|---------------------------|
E|---------------------------|---------------------------|

https://tabs.ultimate-guitar.com/i/imagine_dragons/its_time_intro_tab.htm