Tablature guitare : Eric Clapton – Signe

[Intro]
                  ................. ..........
                   1.2.3.         |  4.      |
       A   E/A       A       E/A  |     A    |
e|-------------0--|-----0---------||---------|-------------|
B|-----2----0-----|--2--------0---||----2----|----------0--|
G|-----2----1-----|--2--------1--o||----2----|-----1h2-----|
D|-----2----2-----|--2--------2--o||----2----|-------------|
A|--0-----0-------|--0-----0------||----0----|-------------|
E|----------------|---------------||---------|--0----------|


 [Part One]
                   A                F#                  Bm             E
e||-----0----------|-----2-------------|-----2----------|-----0------------||
B||--2--------2p0--|----------------2--|--3--------3p2--|--0--------3p2-0--||
G||o-2--------2----|--3--------3h4-----|--4--------4----|--1--------------o||
D||o---------------|--4----------------|----------------|-----------------o||
A||--0-----0-------|-------------------|--2-----2-------|------------------||
E||----------------|--2-----2----------|----------------|--0-----0---------||


 [Part Two]
     A               D9/F#             D9/E              E7/A
e||-----0--------0--|-----0--------0--|-----0--------0--|-----0-------------||
B||--2--------2-----|--3--------3-----|--3--------3-----|--3--------3p2-0---||
G||o-2--------2-----|--2--------2-----|--2--------2-----|--1---------------o||
D||o----------------|-----------------|-----------------|------------------o||
A||--0-----0--------|-----------------|-----------------|-------------------||
E||-----------------|--2-----2--------|--0-----0--------|--0-----0----------||

(Repeat Part One (only the stuff between ||: :||) and then Part Two)


 [Part Three]
                                                    ....................
                                                     1.                |
     C#m7          F#m7               Bm               E               ||
e||--------4--4--|-----2--------2--|-----2----------|-----0------------||
B||-----5--5--5--|--2--------2-----|--3--------3p2--|--0--------3p2-0--||
G||o----4--4--4--|--2--------2-----|--4--------4----|--1--------------o||
D||o-------------|-----------------|----------------|-----------------o||
A||--4-----------|-----------------|--2-----2-------|------------------||
E||--------------|--2-----2--------|----------------|--0-----0---------||

....................
 2.                 |
   E                |  C#m7        F#m7              Bm               E
e|-----0------------|--4--4--4---|----2--------2---|----2-----------|----0----|
B|------------------|------------|-----------------|----------------|---------|
G|--0------------0--|--5--5--5---|-2--------2------|-3--------3p2---|-0-------|
D|-3p2-0------------|------------|-----------------|----------------|---------|
A|--1--------1h2----|--4--4--4---|-2--------2------|-4--------4-----|-1-------|
E|------------------|------------|-----------------|----------------|---------|

e|-------------------|-----------|-----------------|----------------|---------|
B|-------------------|-----------|-----------------|----------------|---------|
G|-------------------|-4--4--4---|-----------------|-2-----2--------|---------|
D|-------------------|-----------|-----------------|----------------|---------|
A|--0-----0----------|-----------|-2-----2---------|----------------|-0-----0-|
E|-------------------|-----------|-----------------|----------------|---------|


(Repeat Part Two)

     A               D9/F#             D9/E              E7/A
e||-----0--------0--|-----0--------0--|-----0--------0--|-----0-------------||
B||--2--------2-----|--3--------3-----|--3--------3-----|--3--------3p2-0---||
G||o-2--------2-----|--2--------2-----|--2--------2-----|--1---------------o||
D||o----------------|-----------------|-----------------|------------------o||
A||--0-----0--------|-----------------|-----------------|-------------------||
E||-----------------|--2-----2--------|--0-----0--------|--0-----0----------||


[Part Four]

    A   D9/F#  C#m7  F#m7      Bm               E
e|-----0-----0-----4-----2--|-----3----------|-----0------------|
B|--2-----3-----5-----2-----|--3--------3p2--|--0--------3p2-0--|
G|--2-----2-----4-----2-----|--4--------4----|--1---------------|
D|--------------------------|----------------|------------------|
A|--0-----------4-----------|--2-----2-------|------------------|
E|--------2-----------2-----|----------------|--0-----0---------|

    A                F#                  Bm             E
e|-----0----------|-----2-------------|-----2----------|-----0------------|
B|--2--------2p0--|----------------2--|--3--------3p2--|--0--------3p2-0--|
G|--2--------2----|--3--------3h4-----|--4--------4----|--1---------------|
D|----------------|--4----------------|----------------|------------------|
A|--0-----0-------|-------------------|--2-----2-------|------------------|
E|----------------|--2-----2----------|----------------|--0-----0---------|


 [Ending]
                                                      .....................
                                                         1.2.3.4.5          |
     A               D9/F#             D9/E               E7/A              |
e||-----0--------0--|-----0--------0--|-----0--------0--|-----0-------------||
B||--2--------2-----|--3--------3-----|--3--------3-----|--3--------3p2-0---||
G||o-2--------2-----|--2--------2-----|--2--------2-----|--1---------------o||
D||o----------------|-----------------|-----------------|------------------o||
A||--0-----0--------|-----------------|-----------------|-------------------||
E||-----------------|--2-----2--------|--0-----0--------|--0-----0----------||

 ......................
  6.                  |
   E7/A               |
e|-----0--------------|--5--||
B|--3--------3--2--0--|--2--||
G|--1-----------------|--2--||
D|--------------------|--2--||
A|--------------------|--0--||
E|--0-----0-----------|-----||


[Part Four alternative version]

Instead of the D9/F# -  G#7.   

    A    G#7   C#m7  F#m7      Bm               E
e|-----0-----------4-----2--|-----3----------|-----0------------|
B|--2-----4--7--5-----2-----|--3--------3p2--|--0--------3p2-0--|
G|--2-----5-----4-----2-----|--4--------4----|--1---------------|
D|--------------------------|----------------|------------------|
A|--0-----------4-----------|--2-----2-------|------------------|
E|--------4-----------2-----|----------------|--0-----0---------|



************************************

| h  Hammer-on
| p  Pull-off

************************************

Good job except for one thing - at the beginning of PART 1, right after you play the "22" you need to play

|-0---0-0-0----4-|
|-2---4-4-4-5--5-|
|-2---4-4-4-4----|
|-----4-4-4------|
|----------------|
|----------------|

It makes a big difference! thx

https://tabs.ultimate-guitar.com/e/eric_clapton/signe_tab.htm