Tablature guitare : Eminem – ‘Till I Collapse

Bosco here, this is exactly what the song sounds like.

e|------------------------------------------------|
B|------------------------------------------------|
G|------------------------------------------------|
D|----6-6-6-6-6-4-6-7-6-------6-6-6-6-6-4-6-2-----|
A|--4-----------------------4---------------------|
E|------------------------------------------------|

e|--------------------------------------------------------|
B|--------------------------------------------------------|
G|--------------------------------------------------------|
D|----6-6-6-6-6-4-6-7-6-------6-6-6-6-6-4-6-2---1---------|
A|--4-----------------------4---------------------2-4-----|
E|--------------------------------------------------------|

You actually just play that through the whole song then so ya.  Have fun!
Suggest correction

https://tabs.ultimate-guitar.com/e/eminem/till_i_collapse_ver2_tab.htm