Tablature guitare : Eminem – Marshall Mathers

e|---------------------------------------------|
B|--------------------1--------0---------------|
G|-----------0------0--------2------------0----|
D|---------4------2--------1------------4------|
A|-------2------0--------2------------2--------|
E|-----0------------------------(2)-0----------|

[Solo]
e|-------------------|---------|--------------------|---------------|
B|-------------------|---------|--------------------|---------------|
G|--------------4\2--|-2-------|--------------4\2---|2/4-4h5-4-2-0--|
D|-------------------|---5\4\2-|--------------------|--------------2|
A|--2/7-9-10\3-------|---------|--2/7-9-10\3--------|---------------|
E|-------------------|---------|--------------------|---------------|


************************************

| (n)  Ghost note
| h    Hammer-on
| /    Slide up
| \    Slide down

************************************

https://tabs.ultimate-guitar.com/e/eminem/marshall_mathers_ver3_tab.htm