Tablature guitare : Eminem – Beautiful

-------------------------------------------------------------------------------
                          BEAUTIFUL - Eminem (intro)
-------------------------------------------------------------------------------

Hold each note for as long as possible before playing the next one.

Played first time
e|----------8--------------------------8~---|
B|----------9--------------------------9~---|
G|---------10--------------------8~----10~--|
D|-----10------10-----6-------6--8~----10~--|
A|--8--------------4-----6s8-----6~----8~---|
E|------------------------------------------|

Second Time
e|----------8--------------------------8~----------------|
B|----------9--------------------------9~----9h11p9------|
G|---------10--------------------8~----10~---------------|
D|-----10------10-----6-------6--8~----10~-----------10--|
A|--8--------------4-----6s8-----6~----8~----------------|
E|-------------------------------------------------------|

e|-------4--------------8~----8~-------------------------------|
B|-------4--------------9~----9~-------------------------------|
G|--6~------8~-----9~---10~--------6~-----8~---------------10--|
D|--6~------8~-----9~---10~--------6~-----8~---------------10--|
A|--4~------6~-----7~---8~---------4~-----6~--------8h11---8---|
E|----------------------------------------------8h11-----------| Rapping Begins



************************************

| ~  Hold Notes
| s  Slide
| h  Hammer-on
| p  Pull-off

************************************

https://tabs.ultimate-guitar.com/e/eminem/beautiful_intro_tab.htm