Tablature guitare : Bruce Springsteen – Fire

this is from Gunnar B

FIRE (Bruce Springsteen)

I'm driving in my

   G
e| -----------------|-----------------|-----------------|-----------------|
B| -----------------|-----------------|-----------------|-----------------|
G| -----------------|-----------------|-----------------|-----------------|
D| -----------------|-----------------|-----------------|-----------------|
A| -5-----5-2-2-5---|---5---5-2-2-5---|-5-----5-2-2-5---|---5---5-2-2-5---|
E| -3-----3-0-0-3---|---3---3-0-0-3---|-3-----3-0-0-3---|---3---3-0-0-3---|

car                I turn on the radio                       I'm pulling you

   am                                  G
e| -----------------|-----------------|-----------------|-----------------|
B| -----------------|-----------------|-----------------|-----------------|
G| -----------------|-----------------|-----------------|-----------------|
D| -----------------|-----------------|-----------------|-----------------|
A| -7-----7-7-7-7---|---7---7-7-7-7---|-5-----5-2-2-5---|---5---5-2-2-5---|
E| -5-----5-0-0-5---|---5---5-0-0-5---|-3-----3-0-0-3---|---3---3-0-0-3---|

close                  You just say  no                      You say you
don't

   am                                  em
e| -----------------|-----------------|-----------------|-----------------|
B| -----------------|-----------------|-----------------|-----------------|
G| -----------------|-----------------|-----------------|-----------------|
D| -----------------|-----------------|-2-----2-2-5-2---|---2---2-2-2-2---|
A| -7-----7-7-7-7---|---7---7-7-7-7---|-2-----2-2-2-2---|---2---2-2-2-2---|
E| -5-----5-0-0-5---|---5---5-0-0-5---|-----------------|-----------------|

like it   ->But girl I know you're a liar                    And when we

   C                 D                 G
e| -----------------|-----------------|-----------------|-----------------|
B| -----------------|-----------------|-----------------|-----------------|
G| -----------------|-----------------|-----------------|-----------------|
D| -2~~~~~~~~~~~~~~-|-4~~~~~~~~~~~~~~-|-----------------|-----------------|
A| -3~~~~~~~~~~~~~~-|-5~~~~~~~~~~~~~~-|-5-----5-2-2-5---|---5---5-2-2-5---|
E| -3~~~~~~~~~~~~~~-|-5~~~~~~~~~~~~~~-|-3-----3-0-0-3---|---3---3-0-0-3---| ...

kiss               hmm             Fire

Well late at

   G
e| -3-----3-3-3-3---|---3---3-3-3-3---|-3-----3-3-3-3---|---3---3-3-3-3---|
B| -3-----3-3-3-3---|---3---3-3-3-3---|-3-----3-3-3-3---|---3---3-3-3-3---|
G| -4-----4-4-4-4---|---4---4-4-4-4---|-4-----4-4-4-4---|---4---4-4-4-4---|
D| -5-----5-5-5-5---|---5---5-5-5-5---|-5-----5-5-5-5---|---5---5-5-5-5---|
A| -5-----5-5-5-5---|---5---5-5-5-5---|-5-----5-5-5-5---|---5---5-5-5-5---|
E| -3-----3-0-0-3---|---3---3-0-0-3---|-3-----3-0-0-3---|---3---3-0-0-3---|

night                 I'm taking you home                    I say I wanna

   am                                  G
e| -5-----5-5-5-5---|---5---5-5-5-5---|-3-----3-3-3-3---|---3---3-3-3-3---|
B| -5-----5-5-5-5---|---5---5-5-5-5---|-3-----3-3-3-3---|---3---3-3-3-3---|
G| -5-----5-5-5-5---|---5---5-5-5-5---|-4-----4-4-4-4---|---4---4-4-4-4---|
D| -7-----7-7-7-7---|---7---7-7-7-7---|-5-----5-5-5-5---|---5---5-5-5-5---|
A| -7-----7-7-7-7---|---7---7-7-7-7---|-5-----5-5-5-5---|---5---5-5-5-5---|
E| -5-----5-0-0-5---|---7---5-0-0-5---|-3-----3-0-0-3---|---3---3-0-0-3---|

stay          ->You say you wanna be alone                   You say you
don't

   am                                  em
e| -5-----5-5-5-5---|---5---5-5-5-5---|-7-----7-7-7-7---|---7---7-7-7-7---|
B| -5-----5-5-5-5---|---5---5-5-5-5---|-8-----8-8-8-8---|---8---8-8-8-8---|
G| -5-----5-5-5-5---|---5---5-5-5-5---|-9-----9-9-9-9---|---9---9-9-9-9---|
D| -7-----7-7-7-7---|---7---7-7-7-7---|-9-----9-9-9-9---|---9---9-9-9-9---|
A| -7-----7-7-7-7---|---7---7-7-7-7---|-7-----7-7-7-7---|---7---7-7-7-7---|
E| -5-----5-0-0-5---|---5---5-0-0-5---|-7-----7-7-7-7---|---7---7-7-7-7---|

love me ->But you can't hide your desire                 And when we

   C                 D                 G
e| -8~~~~~~~~~~~~~~-|-10~~~~~~~~~~~~~-|-3-----3-3-3-3---|---3---3-3-3-3---|
B| -8~~~~~~~~~~~~~~-|-10~~~~~~~~~~~~~-|-3-----3-3-3-3---|---3---3-3-3-3---|
G| -9~~~~~~~~~~~~~~-|-11~~~~~~~~~~~~~-|-4-----4-4-4-4---|---4---4-4-4-4---|
D| -10~~~~~~~~~~~~~-|-12~~~~~~~~~~~~~-|-5-----5-5-5-5---|---5---5-5-5-5---|
A| -10~~~~~~~~~~~~~-|-12~~~~~~~~~~~~~-|-5-----5-5-5-5---|---5---5-5-5-5---|
E| -8~~~~~~~~~~~~~~-|-10~~~~~~~~~~~~~-|-3-----3-0-0-3---|---3---3-0-0-3---| ...

kiss               hmm             Fire

You had a

C (332010)       G (320003)            D (x00232)            G (320003)
hold on me right from the start It's a grip so tight I wanna tear it apart

   C (332010)                G (320003)        am (002210)
My nerves all jumping acting like a fool Your kisses they burn but your

D (x00232) am7 (002010) D7 (x00212)
heart      stays        cool

Romeo and Juli-

   G
e| -----------------|-----------------|-----------------|-----------------|
B| -----------------|-----------------|-----------------|-----------------|
G| -----------------|-----------------|-----------------|-----------------|
D| -----------------|-----------------|-----------------|-----------------|
A| -5-----5-2-2-5---|---5---5-2-2-5---|-5-----5-2-2-5---|---5---5-2-2-5---|
E| -3-----3-0-0-3---|---3---3-0-0-3---|-3-----3-0-0-3---|---3---3-0-0-3---|

et                 Samson and     Delilah              Baby we can

   am                                  G
e| -----------------|-----------------|-----------------|-----------------|
B| -----------------|-----------------|-----------------|-----------------|
G| -----------------|-----------------|-----------------|-----------------|
D| -----------------|-----------------|-----------------|-----------------|
A| -7-----7-7-7-7---|---7---7-7-7-7---|-5-----5-2-2-5---|---5---5-2-2-5---|
E| -5-----5-0-0-5---|---5---5-0-0-5---|-3-----3-0-0-3---|---3---3-0-0-3---|

bed       ->Their love they didn't deny                   Your words say

   am                                  em
e| -----------------|-----------------|-----------------|-----------------|
B| -----------------|-----------------|-----------------|-----------------|
G| -----------------|-----------------|-----------------|-----------------|
D| -----------------|-----------------|-2-----2-2-5-2---|---2---2-2-2-2---|
A| -7-----7-7-7-7---|---7---7-7-7-7---|-2-----2-2-2-2---|---2---2-2-2-2---|
E| -5-----5-0-0-5---|---5---5-0-0-5---|-----------------|-----------------|

split            But your words they lie                     And when we

   C                 D                 G
e| -----------------|-----------------|-3-----3-3-3-3---|---3---3-3-3-3---|
B| -----------------|-----------------|-3-----3-3-3-3---|---3---3-3-3-3---|
G| -----------------|-----------------|-4-----4-4-4-4---|---4---4-4-4-4---|
D| -2~~~~~~~~~~~~~~-|-4~~~~~~~~~~~~~~-|-5-----5-5-5-5---|---5---5-5-5-5---|
A| -3~~~~~~~~~~~~~~-|-5~~~~~~~~~~~~~~-|-5-----5-5-5-5---|---5---5-5-5-5---|
E| -3~~~~~~~~~~~~~~-|-5~~~~~~~~~~~~~~-|-3-----3-0-0-3---|---3---3-0-0-3---| ...

kiss               hmm               Fire



************************************

| ~  Vibrato

************************************

https://tabs.ultimate-guitar.com/b/bruce_springsteen/fire_tab.htm