Tablature guitare : Bruce Springsteen – Born In The USA

Born In The USA
by Bruce Springsteen
tabbed by Dave Vai

Chords for verses and chorus'
   B       B        B       B       B        B
e|------------------------|------------------------|
B|-4-------4--------4-----|-4-------4--------4-----|
G|-4-------4--------4-----|-4-------4--------4-----|
D|-4-------4--------4-----|-4-------4--------4-----|
A|-2-------2--------2-----|-2-------2--------2-----|
E|------------------------|------------------------|

   E       E        E       E       E        E
e|------------------------|------------------------|
B|-0-------0--------0-----|-0-------0--------0-----|
G|-1-------1--------1-----|-1-------1--------1-----|
D|-2-------2--------2-----|-2-------2--------2-----|
A|-2-------2--------2-----|-2-------2--------2-----|
E|-0-------0--------0-----|-0-------0--------0-----|

Main riff arranged for guitar
e|-----2---0--2--4--0--2--|-----2---0--2--4--0--2--|
B|-----0---0--0--0--0--0--|-----0---0--0--0--0--0--|
G|------------------------|------------------------|
D|------------------------|------------------------|
A|-2----------------------|-2----------------------|
E|------------------------|------------------------|

e|-----2---0--2--4--0--2--|-----2---0--2--4--0--2--|
B|-----0---0--0--0--0--0--|-----0---0--0--0--0--0--|
G|------------------------|------------------------|
D|------------------------|------------------------|
A|------------------------|------------------------|
E|-0----------------------|------------------------|

https://tabs.ultimate-guitar.com/b/bruce_springsteen/born_in_the_usa_ver2_tab.htm